ISO-10303-21;
HEADER;
FILE_DESCRIPTION (( 'STEP AP203' ),
    '1' );
FILE_NAME ('392829.step',
    '2021-12-09T12:42:26',
    ( '' ),
    ( '' ),
    'SwSTEP 2.0',
    'SolidWorks 2019',
    '' );
FILE_SCHEMA (( 'CONFIG_CONTROL_DESIGN' ));
ENDSEC;

DATA;
#1 = DIRECTION ( 'NONE',  ( 1.000000000000000000, 0.0000000000000000000, -3.491481338843133355E-15 ) ) ;
#2 = PERSON_AND_ORGANIZATION ( #53, #62 ) ;
#3 = SHAPE_DEFINITION_REPRESENTATION ( #104, #103 ) ;
#4 = AXIS2_PLACEMENT_3D ( 'NONE', #101, #153, #136 ) ;
#5 = EDGE_LOOP ( 'NONE', ( #196 ) ) ;
#6 = EDGE_CURVE ( 'NONE', #189, #189, #57, .T. ) ;
#7 = AXIS2_PLACEMENT_3D ( 'NONE', #138, #51, #169 ) ;
#8 = CC_DESIGN_APPROVAL ( #110, ( #16 ) ) ;
#9 = CARTESIAN_POINT ( 'NONE',  ( 1.920314736363723472E-13, -8.817456953860941711E-15, 55.00000000000000000 ) ) ;
#10 = DIRECTION ( 'NONE',  ( 0.0000000000000000000, 1.000000000000000000, 0.0000000000000000000 ) ) ;
#11 = CC_DESIGN_DATE_AND_TIME_ASSIGNMENT ( #131, #203, ( #161 ) ) ;
#12 = PERSON_AND_ORGANIZATION_ROLE ( 'classification_officer' ) ;
#13 = FACE_OUTER_BOUND ( 'NONE', #167, .T. ) ;
#14 = COORDINATED_UNIVERSAL_TIME_OFFSET ( 1, 0, .AHEAD. ) ;
#15 = VERTEX_POINT ( 'NONE', #159 ) ;
#16 = PRODUCT_DEFINITION_FORMATION_WITH_SPECIFIED_SOURCE ( 'ANY', '', #91, .NOT_KNOWN. ) ;
#17 = CALENDAR_DATE ( 2021, 9, 12 ) ;
#18 = DIRECTION ( 'NONE',  ( -3.491481338843133355E-15, 2.944983969378159050E-16, -1.000000000000000000 ) ) ;
#19 = CIRCLE ( 'NONE', #178, 3.000000000000000000 ) ;
#20 = ADVANCED_FACE ( 'NONE', ( #106, #89 ), #35, .T. ) ;
#21 = CALENDAR_DATE ( 2021, 9, 12 ) ;
#22 = EDGE_LOOP ( 'NONE', ( #75 ) ) ;
#23 = ORIENTED_EDGE ( 'NONE', *, *, #6, .T. ) ;
#24 =( LENGTH_UNIT ( ) NAMED_UNIT ( * ) SI_UNIT ( .MILLI., .METRE. ) );
#25 = ORIENTED_EDGE ( 'NONE', *, *, #114, .T. ) ;
#26 = AXIS2_PLACEMENT_3D ( 'NONE', #107, #18, #10 ) ;
#27 = DIRECTION ( 'NONE',  ( 3.491481338843133355E-15, 2.731904398097942737E-16, 1.000000000000000000 ) ) ;
#28 = APPROVAL_PERSON_ORGANIZATION ( #2, #41, #218 ) ;
#29 = FACE_OUTER_BOUND ( 'NONE', #148, .T. ) ;
#30 = APPLICATION_PROTOCOL_DEFINITION ( 'international standard', 'config_control_design', 1994, #207 ) ;
#31 = DIRECTION ( 'NONE',  ( 1.000000000000000000, 0.0000000000000000000, -3.491481338843133355E-15 ) ) ;
#32 = CARTESIAN_POINT ( 'NONE',  ( 4.538925740496073362E-14, 3.551475717527325607E-15, 13.00000000000000000 ) ) ;
#33 = PERSON_AND_ORGANIZATION_ROLE ( 'creator' ) ;
#34 = DIRECTION ( 'NONE',  ( 3.491481338843133355E-15, -2.944983969378159050E-16, 1.000000000000000000 ) ) ;
#35 = CONICAL_SURFACE ( 'NONE', #26, 3.000000000000004441, 0.7853981633974453924 ) ;
#36 = COORDINATED_UNIVERSAL_TIME_OFFSET ( 1, 0, .AHEAD. ) ;
#37 = PRODUCT_RELATED_PRODUCT_CATEGORY ( 'detail', '', ( #91 ) ) ;
#38 = COORDINATED_UNIVERSAL_TIME_OFFSET ( 1, 0, .AHEAD. ) ;
#39 = DATE_AND_TIME ( #21, #175 ) ;
#40 = AXIS2_PLACEMENT_3D ( 'NONE', #77, #186, #96 ) ;
#41 = APPROVAL ( #172, 'UNSPECIFIED' ) ;
#42 = CARTESIAN_POINT ( 'NONE',  ( 3.000000000000001776, 0.0000000000000000000, 0.4999999999999897304 ) ) ;
#43 = DIRECTION ( 'NONE',  ( 3.491481338843133355E-15, -2.944983969378159050E-16, 1.000000000000000000 ) ) ;
#44 = ORIENTED_EDGE ( 'NONE', *, *, #204, .T. ) ;
#45 = CC_DESIGN_PERSON_AND_ORGANIZATION_ASSIGNMENT ( #135, #191, ( #91 ) ) ;
#46 = DIRECTION ( 'NONE',  ( -3.491481338843133355E-15, 2.944983969378159050E-16, -1.000000000000000000 ) ) ;
#47 = DATE_AND_TIME ( #129, #184 ) ;
#48 = DIRECTION ( 'NONE',  ( 3.491481338843133355E-15, 2.731904398097942737E-16, 1.000000000000000000 ) ) ;
#49 = VERTEX_POINT ( 'NONE', #182 ) ;
#50 = DATE_AND_TIME ( #64, #54 ) ;
#51 = DIRECTION ( 'NONE',  ( 3.491481338843133355E-15, -2.944983969378159050E-16, 1.000000000000000000 ) ) ;
#52 = ADVANCED_FACE ( 'NONE', ( #68, #116 ), #187, .T. ) ;
#53 = PERSON ( 'UNSPECIFIED', 'UNSPECIFIED', 'UNSPECIFIED', ('UNSPECIFIED'), ('UNSPECIFIED'), ('UNSPECIFIED') ) ;
#54 = LOCAL_TIME ( 13, 42, 26.00000000000000000, #36 ) ;
#55 = EDGE_CURVE ( 'NONE', #15, #15, #177, .T. ) ;
#56 = ORIENTED_EDGE ( 'NONE', *, *, #6, .F. ) ;
#57 = CIRCLE ( 'NONE', #145, 2.999999999999989786 ) ;
#58 = DIRECTION ( 'NONE',  ( 0.0000000000000000000, -1.000000000000000000, 0.0000000000000000000 ) ) ;
#59 = APPROVAL_DATE_TIME ( #206, #41 ) ;
#60 = CARTESIAN_POINT ( 'NONE',  ( 0.0000000000000000000, 0.0000000000000000000, 0.0000000000000000000 ) ) ;
#61 = PERSON_AND_ORGANIZATION ( #53, #62 ) ;
#62 = ORGANIZATION ( 'UNSPECIFIED', 'UNSPECIFIED', '' ) ;
#63 = DIRECTION ( 'NONE',  ( 1.028235657227602038E-30, 1.000000000000000000, 2.944983969378159050E-16 ) ) ;
#64 = CALENDAR_DATE ( 2021, 9, 12 ) ;
#65 = ADVANCED_FACE ( 'NONE', ( #223 ), #84, .F. ) ;
#66 = FACE_OUTER_BOUND ( 'NONE', #22, .T. ) ;
#67 = APPROVAL_STATUS ( 'not_yet_approved' ) ;
#68 = FACE_OUTER_BOUND ( 'NONE', #215, .T. ) ;
#69 = VERTEX_POINT ( 'NONE', #42 ) ;
#70 = MANIFOLD_SOLID_BREP ( 'Corps-Déplacer/Copier1[2]', #144 ) ;
#71 = CC_DESIGN_PERSON_AND_ORGANIZATION_ASSIGNMENT ( #185, #33, ( #16 ) ) ;
#72 = EDGE_LOOP ( 'NONE', ( #25 ) ) ;
#73 = AXIS2_PLACEMENT_3D ( 'NONE', #171, #27, #58 ) ;
#74 = CC_DESIGN_PERSON_AND_ORGANIZATION_ASSIGNMENT ( #174, #12, ( #161 ) ) ;
#75 = ORIENTED_EDGE ( 'NONE', *, *, #193, .T. ) ;
#76 = AXIS2_PLACEMENT_3D ( 'NONE', #152, #216, #102 ) ;
#77 = CARTESIAN_POINT ( 'NONE',  ( -1.430758983819365362E-30, 2.999999999999995559, -4.097856597146907942E-16 ) ) ;
#78 = APPROVAL_ROLE ( '' ) ;
#79 = DIRECTION ( 'NONE',  ( 3.491481338843133355E-15, -0.0000000000000000000, 1.000000000000000000 ) ) ;
#80 = COORDINATED_UNIVERSAL_TIME_OFFSET ( 1, 0, .AHEAD. ) ;
#81 = FACE_OUTER_BOUND ( 'NONE', #181, .T. ) ;
#82 = CC_DESIGN_DATE_AND_TIME_ASSIGNMENT ( #50, #117, ( #198 ) ) ;
#83 = CIRCLE ( 'NONE', #163, 2.999999999999990230 ) ;
#84 = PLANE ( 'NONE',  #108 ) ;
#85 = DESIGN_CONTEXT ( 'detailed design', #123, 'design' ) ;
#86 = PLANE ( 'NONE',  #7 ) ;
#87 = CIRCLE ( 'NONE', #195, 2.500000000000000000 ) ;
#88 = APPROVAL_ROLE ( '' ) ;
#89 = FACE_OUTER_BOUND ( 'NONE', #211, .T. ) ;
#90 = LOCAL_TIME ( 13, 42, 26.00000000000000000, #14 ) ;
#91 = PRODUCT ( '392829', '392829', '', ( #140 ) ) ;
#92 = CARTESIAN_POINT ( 'NONE',  ( 1.899365848330664293E-13, -8.640757915698250758E-15, 54.39999999999999858 ) ) ;
#93 = TOROIDAL_SURFACE ( 'NONE', #141, 2.500000000000000000, 0.5000000000000001110 ) ;
#94 = VERTEX_POINT ( 'NONE', #121 ) ;
#95 = PERSON_AND_ORGANIZATION ( #53, #62 ) ;
#96 = DIRECTION ( 'NONE',  ( 9.538393225462449760E-31, -1.000000000000000000, 2.731904398097942737E-16 ) ) ;
#97 = EDGE_CURVE ( 'NONE', #49, #49, #83, .T. ) ;
#98 = FACE_OUTER_BOUND ( 'NONE', #105, .T. ) ;
#99 = PERSON_AND_ORGANIZATION_ROLE ( 'design_supplier' ) ;
#100 = CLOSED_SHELL ( 'NONE', ( #162, #139, #20, #65 ) ) ;
#101 = CARTESIAN_POINT ( 'NONE',  ( 1.920314736363723472E-13, -8.817456953860941711E-15, 55.00000000000000000 ) ) ;
#102 = DIRECTION ( 'NONE',  ( 1.000000000000000000, 0.0000000000000000000, 0.0000000000000000000 ) ) ;
#103 = ADVANCED_BREP_SHAPE_REPRESENTATION ( '392829', ( #154, #70, #76 ), #132 ) ;
#104 = PRODUCT_DEFINITION_SHAPE ( 'NONE', 'NONE',  #198 ) ;
#105 = EDGE_LOOP ( 'NONE', ( #149 ) ) ;
#106 = FACE_BOUND ( 'NONE', #5, .T. ) ;
#107 = CARTESIAN_POINT ( 'NONE',  ( 1.899365848330664293E-13, -8.640757915698250758E-15, 54.39999999999999858 ) ) ;
#108 = AXIS2_PLACEMENT_3D ( 'NONE', #210, #46, #63 ) ;
#109 = EDGE_LOOP ( 'NONE', ( #44 ) ) ;
#110 = APPROVAL ( #67, 'UNSPECIFIED' ) ;
#111 = DIRECTION ( 'NONE',  ( -9.538393225462449760E-31, 1.000000000000000000, -2.731904398097942737E-16 ) ) ;
#112 = DIRECTION ( 'NONE',  ( 3.491481338843133355E-15, -0.0000000000000000000, 1.000000000000000000 ) ) ;
#113 = APPROVAL_DATE_TIME ( #47, #110 ) ;
#114 = EDGE_CURVE ( 'NONE', #128, #128, #190, .T. ) ;
#115 = FACE_OUTER_BOUND ( 'NONE', #150, .T. ) ;
#116 = FACE_OUTER_BOUND ( 'NONE', #109, .T. ) ;
#117 = DATE_TIME_ROLE ( 'creation_date' ) ;
#118 = CARTESIAN_POINT ( 'NONE',  ( 1.745740669421567467E-15, 0.0000000000000000000, 0.5000000000000002220 ) ) ;
#119 = PERSON_AND_ORGANIZATION ( #53, #62 ) ;
#120 = CC_DESIGN_PERSON_AND_ORGANIZATION_ASSIGNMENT ( #95, #99, ( #16 ) ) ;
#121 = CARTESIAN_POINT ( 'NONE',  ( 2.500000000000000000, 0.0000000000000000000, -8.728703347107833388E-15 ) ) ;
#122 = AXIS2_PLACEMENT_3D ( 'NONE', #9, #157, #201 ) ;
#123 = APPLICATION_CONTEXT ( 'configuration controlled 3d designs of mechanical parts and assemblies' ) ;
#124 = ORIENTED_EDGE ( 'NONE', *, *, #97, .T. ) ;
#125 =( NAMED_UNIT ( * ) PLANE_ANGLE_UNIT ( ) SI_UNIT ( $, .RADIAN. ) );
#126 = DIRECTION ( 'NONE',  ( -2.054325274013058466E-30, -1.000000000000000000, -5.782411586589376374E-16 ) ) ;
#127 = ADVANCED_FACE ( 'NONE', ( #66, #115 ), #93, .T. ) ;
#128 = VERTEX_POINT ( 'NONE', #183 ) ;
#129 = CALENDAR_DATE ( 2021, 9, 12 ) ;
#130 = CARTESIAN_POINT ( 'NONE',  ( 4.538925740496072100E-14, -2.999999999999986233, 12.99999999999999645 ) ) ;
#131 = DATE_AND_TIME ( #17, #133 ) ;
#132 =( GEOMETRIC_REPRESENTATION_CONTEXT ( 3 ) GLOBAL_UNCERTAINTY_ASSIGNED_CONTEXT ( ( #208 ) ) GLOBAL_UNIT_ASSIGNED_CONTEXT ( ( #24, #125, #147 ) ) REPRESENTATION_CONTEXT ( 'NONE', 'WORKASPACE' ) );
#133 = LOCAL_TIME ( 13, 42, 26.00000000000000000, #80 ) ;
#134 = DIRECTION ( 'NONE',  ( 1.000000000000000000, 0.0000000000000000000, -3.505587024369797538E-15 ) ) ;
#135 = PERSON_AND_ORGANIZATION ( #53, #62 ) ;
#136 = DIRECTION ( 'NONE',  ( 0.0000000000000000000, -1.000000000000000000, 0.0000000000000000000 ) ) ;
#137 = COORDINATED_UNIVERSAL_TIME_OFFSET ( 1, 0, .AHEAD. ) ;
#138 = CARTESIAN_POINT ( 'NONE',  ( 4.538925740496072731E-14, 3.551475717527324818E-15, 12.99999999999999822 ) ) ;
#139 = ADVANCED_FACE ( 'NONE', ( #98, #13 ), #205, .T. ) ;
#140 = MECHANICAL_CONTEXT ( 'NONE', #207, 'mechanical' ) ;
#141 = AXIS2_PLACEMENT_3D ( 'NONE', #155, #79, #1 ) ;
#142 = CC_DESIGN_SECURITY_CLASSIFICATION ( #161, ( #16 ) ) ;
#143 = APPROVAL_STATUS ( 'not_yet_approved' ) ;
#144 = CLOSED_SHELL ( 'NONE', ( #52, #166, #127, #158 ) ) ;
#145 = AXIS2_PLACEMENT_3D ( 'NONE', #146, #43, #126 ) ;
#146 = CARTESIAN_POINT ( 'NONE',  ( 4.538925740496072731E-14, 3.551475717527327185E-15, 12.99999999999999822 ) ) ;
#147 =( NAMED_UNIT ( * ) SI_UNIT ( $, .STERADIAN. ) SOLID_ANGLE_UNIT ( ) );
#148 = EDGE_LOOP ( 'NONE', ( #214 ) ) ;
#149 = ORIENTED_EDGE ( 'NONE', *, *, #55, .F. ) ;
#150 = EDGE_LOOP ( 'NONE', ( #164 ) ) ;
#151 = PLANE ( 'NONE',  #165 ) ;
#152 = CARTESIAN_POINT ( 'NONE',  ( 0.0000000000000000000, 0.0000000000000000000, 0.0000000000000000000 ) ) ;
#153 = DIRECTION ( 'NONE',  ( 3.491481338843133355E-15, -2.944983969378159050E-16, 1.000000000000000000 ) ) ;
#154 = MANIFOLD_SOLID_BREP ( 'Corps-Déplacer/Copier1[1]', #100 ) ;
#155 = CARTESIAN_POINT ( 'NONE',  ( 1.745740669421567467E-15, 0.0000000000000000000, 0.5000000000000002220 ) ) ;
#156 = CALENDAR_DATE ( 2021, 9, 12 ) ;
#157 = DIRECTION ( 'NONE',  ( 3.491481338843133355E-15, -2.944983969378159050E-16, 1.000000000000000000 ) ) ;
#158 = ADVANCED_FACE ( 'NONE', ( #29 ), #209, .F. ) ;
#159 = CARTESIAN_POINT ( 'NONE',  ( 1.899365848330664293E-13, -3.000000000000012879, 54.39999999999999858 ) ) ;
#160 = APPROVAL_PERSON_ORGANIZATION ( #61, #110, #78 ) ;
#161 = SECURITY_CLASSIFICATION ( '', '', #170 ) ;
#162 = ADVANCED_FACE ( 'NONE', ( #219 ), #86, .F. ) ;
#163 = AXIS2_PLACEMENT_3D ( 'NONE', #32, #48, #199 ) ;
#164 = ORIENTED_EDGE ( 'NONE', *, *, #204, .F. ) ;
#165 = AXIS2_PLACEMENT_3D ( 'NONE', #173, #217, #111 ) ;
#166 = ADVANCED_FACE ( 'NONE', ( #81 ), #151, .F. ) ;
#167 = EDGE_LOOP ( 'NONE', ( #23 ) ) ;
#168 = DIRECTION ( 'NONE',  ( 0.0000000000000000000, -1.000000000000000000, 0.0000000000000000000 ) ) ;
#169 = DIRECTION ( 'NONE',  ( -1.028235657227602038E-30, -1.000000000000000000, -2.944983969378159050E-16 ) ) ;
#170 = SECURITY_CLASSIFICATION_LEVEL ( 'unclassified' ) ;
#171 = CARTESIAN_POINT ( 'NONE',  ( 4.538925740496072731E-14, 3.551475717527324818E-15, 12.99999999999999822 ) ) ;
#172 = APPROVAL_STATUS ( 'not_yet_approved' ) ;
#173 = CARTESIAN_POINT ( 'NONE',  ( 4.538925740496072731E-14, 3.551475717527324818E-15, 12.99999999999999822 ) ) ;
#174 = PERSON_AND_ORGANIZATION ( #53, #62 ) ;
#175 = LOCAL_TIME ( 13, 42, 26.00000000000000000, #38 ) ;
#176 = DIRECTION ( 'NONE',  ( 3.491481338843133355E-15, -0.0000000000000000000, 1.000000000000000000 ) ) ;
#177 = CIRCLE ( 'NONE', #180, 3.000000000000004441 ) ;
#178 = AXIS2_PLACEMENT_3D ( 'NONE', #118, #176, #134 ) ;
#179 = EDGE_LOOP ( 'NONE', ( #56 ) ) ;
#180 = AXIS2_PLACEMENT_3D ( 'NONE', #92, #34, #168 ) ;
#181 = EDGE_LOOP ( 'NONE', ( #124 ) ) ;
#182 = CARTESIAN_POINT ( 'NONE',  ( 4.538925740496073362E-14, -2.999999999999986677, 13.00000000000000000 ) ) ;
#183 = CARTESIAN_POINT ( 'NONE',  ( 1.920314736363723472E-13, -2.400000000000013234, 55.00000000000000000 ) ) ;
#184 = LOCAL_TIME ( 13, 42, 26.00000000000000000, #137 ) ;
#185 = PERSON_AND_ORGANIZATION ( #53, #62 ) ;
#186 = DIRECTION ( 'NONE',  ( 3.491481338843133355E-15, 2.731904398097942737E-16, 1.000000000000000000 ) ) ;
#187 = CYLINDRICAL_SURFACE ( 'NONE', #73, 2.999999999999993339 ) ;
#188 = APPROVAL ( #143, 'UNSPECIFIED' ) ;
#189 = VERTEX_POINT ( 'NONE', #130 ) ;
#190 = CIRCLE ( 'NONE', #122, 2.400000000000004352 ) ;
#191 = PERSON_AND_ORGANIZATION_ROLE ( 'design_owner' ) ;
#192 = PERSON_AND_ORGANIZATION ( #53, #62 ) ;
#193 = EDGE_CURVE ( 'NONE', #94, #94, #87, .T. ) ;
#194 = APPROVAL_DATE_TIME ( #39, #188 ) ;
#195 = AXIS2_PLACEMENT_3D ( 'NONE', #60, #112, #31 ) ;
#196 = ORIENTED_EDGE ( 'NONE', *, *, #114, .F. ) ;
#197 = ORIENTED_EDGE ( 'NONE', *, *, #55, .T. ) ;
#198 = PRODUCT_DEFINITION ( 'UNKNOWN', '', #16, #85 ) ;
#199 = DIRECTION ( 'NONE',  ( 0.0000000000000000000, -1.000000000000000000, 0.0000000000000000000 ) ) ;
#200 = APPLICATION_PROTOCOL_DEFINITION ( 'international standard', 'config_control_design', 1994, #123 ) ;
#201 = DIRECTION ( 'NONE',  ( 0.0000000000000000000, -1.000000000000000000, 0.0000000000000000000 ) ) ;
#202 = APPROVAL_PERSON_ORGANIZATION ( #192, #188, #88 ) ;
#203 = DATE_TIME_ROLE ( 'classification_date' ) ;
#204 = EDGE_CURVE ( 'NONE', #69, #69, #19, .T. ) ;
#205 = CYLINDRICAL_SURFACE ( 'NONE', #4, 2.999999999999997335 ) ;
#206 = DATE_AND_TIME ( #156, #90 ) ;
#207 = APPLICATION_CONTEXT ( 'configuration controlled 3d designs of mechanical parts and assemblies' ) ;
#208 = UNCERTAINTY_MEASURE_WITH_UNIT (LENGTH_MEASURE( 1.000000000000000082E-05 ), #24, 'distance_accuracy_value', 'NONE');
#209 = PLANE ( 'NONE',  #40 ) ;
#210 = CARTESIAN_POINT ( 'NONE',  ( 1.920314736363723472E-13, -8.817456953860941711E-15, 55.00000000000000000 ) ) ;
#211 = EDGE_LOOP ( 'NONE', ( #197 ) ) ;
#212 = CC_DESIGN_PERSON_AND_ORGANIZATION_ASSIGNMENT ( #119, #222, ( #198 ) ) ;
#213 = ORIENTED_EDGE ( 'NONE', *, *, #97, .F. ) ;
#214 = ORIENTED_EDGE ( 'NONE', *, *, #193, .F. ) ;
#215 = EDGE_LOOP ( 'NONE', ( #213 ) ) ;
#216 = DIRECTION ( 'NONE',  ( 0.0000000000000000000, 0.0000000000000000000, 1.000000000000000000 ) ) ;
#217 = DIRECTION ( 'NONE',  ( -3.491481338843133355E-15, -2.731904398097942737E-16, -1.000000000000000000 ) ) ;
#218 = APPROVAL_ROLE ( '' ) ;
#219 = FACE_OUTER_BOUND ( 'NONE', #179, .T. ) ;
#220 = CC_DESIGN_APPROVAL ( #41, ( #198 ) ) ;
#221 = CC_DESIGN_APPROVAL ( #188, ( #161 ) ) ;
#222 = PERSON_AND_ORGANIZATION_ROLE ( 'creator' ) ;
#223 = FACE_OUTER_BOUND ( 'NONE', #72, .T. ) ;
ENDSEC;
END-ISO-10303-21;
