ISO-10303-21;
HEADER;
FILE_DESCRIPTION (( 'STEP AP203' ),
    '1' );
FILE_NAME ('392827.step',
    '2021-12-09T12:42:25',
    ( '' ),
    ( '' ),
    'SwSTEP 2.0',
    'SolidWorks 2019',
    '' );
FILE_SCHEMA (( 'CONFIG_CONTROL_DESIGN' ));
ENDSEC;

DATA;
#1 = APPROVAL_STATUS ( 'not_yet_approved' ) ;
#2 = CIRCLE ( 'NONE', #86, 2.400000000000004352 ) ;
#3 = APPROVAL ( #67, 'UNSPECIFIED' ) ;
#4 = APPROVAL_PERSON_ORGANIZATION ( #27, #224, #185 ) ;
#5 = FACE_OUTER_BOUND ( 'NONE', #153, .T. ) ;
#6 = ORIENTED_EDGE ( 'NONE', *, *, #19, .F. ) ;
#7 = CLOSED_SHELL ( 'NONE', ( #131, #8, #149, #228 ) ) ;
#8 = ADVANCED_FACE ( 'NONE', ( #214, #155 ), #138, .T. ) ;
#9 = DIRECTION ( 'NONE',  ( 3.491481338843133355E-15, -0.0000000000000000000, 1.000000000000000000 ) ) ;
#10 = SECURITY_CLASSIFICATION ( '', '', #148 ) ;
#11 = DIRECTION ( 'NONE',  ( 3.491481338843133355E-15, -0.0000000000000000000, 1.000000000000000000 ) ) ;
#12 = FACE_OUTER_BOUND ( 'NONE', #135, .T. ) ;
#13 = CARTESIAN_POINT ( 'NONE',  ( 2.500000000000035527, 0.0000000000000000000, 10.29999999999999183 ) ) ;
#14 = EDGE_LOOP ( 'NONE', ( #218 ) ) ;
#15 = VERTEX_POINT ( 'NONE', #76 ) ;
#16 = DIRECTION ( 'NONE',  ( -3.491481338843133355E-15, 2.915042940252312719E-16, -1.000000000000000000 ) ) ;
#17 = DIRECTION ( 'NONE',  ( 0.0000000000000000000, -1.000000000000000000, 0.0000000000000000000 ) ) ;
#18 = CARTESIAN_POINT ( 'NONE',  ( 3.596225779008426725E-14, 4.212784989066896354E-15, 10.29999999999999893 ) ) ;
#19 = EDGE_CURVE ( 'NONE', #181, #181, #133, .T. ) ;
#20 = ORIENTED_EDGE ( 'NONE', *, *, #193, .F. ) ;
#21 = DATE_AND_TIME ( #188, #180 ) ;
#22 = FACE_OUTER_BOUND ( 'NONE', #259, .T. ) ;
#23 = APPROVAL_ROLE ( '' ) ;
#24 = AXIS2_PLACEMENT_3D ( 'NONE', #182, #16, #251 ) ;
#25 = CARTESIAN_POINT ( 'NONE',  ( 1.920314736363723472E-13, -8.817456953860941711E-15, 55.00000000000000000 ) ) ;
#26 = CALENDAR_DATE ( 2021, 9, 12 ) ;
#27 = PERSON_AND_ORGANIZATION ( #81, #249 ) ;
#28 = APPROVAL_DATE_TIME ( #21, #224 ) ;
#29 = ORIENTED_EDGE ( 'NONE', *, *, #51, .F. ) ;
#30 = CONICAL_SURFACE ( 'NONE', #62, 6.499999999999997335, 0.2617993877991430796 ) ;
#31 = CC_DESIGN_APPROVAL ( #3, ( #109 ) ) ;
#32 = ADVANCED_BREP_SHAPE_REPRESENTATION ( '392827', ( #176, #99, #255 ), #110 ) ;
#33 = CARTESIAN_POINT ( 'NONE',  ( -2.142067015614396681E-30, 2.999999999999995559, -6.135123770485763683E-16 ) ) ;
#34 = APPLICATION_CONTEXT ( 'configuration controlled 3d designs of mechanical parts and assemblies' ) ;
#35 = DIRECTION ( 'NONE',  ( 1.000000000000000000, 0.0000000000000000000, -3.491481338843133355E-15 ) ) ;
#36 = VERTEX_POINT ( 'NONE', #236 ) ;
#37 = AXIS2_PLACEMENT_3D ( 'NONE', #25, #80, #84 ) ;
#38 = CARTESIAN_POINT ( 'NONE',  ( 0.0000000000000000000, 0.0000000000000000000, 0.0000000000000000000 ) ) ;
#39 = APPROVAL ( #89, 'UNSPECIFIED' ) ;
#40 =( NAMED_UNIT ( * ) PLANE_ANGLE_UNIT ( ) SI_UNIT ( $, .RADIAN. ) );
#41 = FACE_OUTER_BOUND ( 'NONE', #14, .T. ) ;
#42 = DIRECTION ( 'NONE',  ( 3.491481338843133355E-15, -0.0000000000000000000, 1.000000000000000000 ) ) ;
#43 = CC_DESIGN_APPROVAL ( #224, ( #57 ) ) ;
#44 = ADVANCED_FACE ( 'NONE', ( #175 ), #77, .F. ) ;
#45 = APPROVAL_DATE_TIME ( #150, #39 ) ;
#46 = EDGE_LOOP ( 'NONE', ( #173 ) ) ;
#47 = PERSON_AND_ORGANIZATION_ROLE ( 'design_owner' ) ;
#48 = DIRECTION ( 'NONE',  ( -3.491481338843133355E-15, 0.0000000000000000000, -1.000000000000000000 ) ) ;
#49 = PERSON_AND_ORGANIZATION ( #81, #249 ) ;
#50 = AXIS2_PLACEMENT_3D ( 'NONE', #163, #48, #74 ) ;
#51 = EDGE_CURVE ( 'NONE', #197, #197, #2, .T. ) ;
#52 = CARTESIAN_POINT ( 'NONE',  ( 1.920314736363723472E-13, -8.817456953860941711E-15, 55.00000000000000000 ) ) ;
#53 = UNCERTAINTY_MEASURE_WITH_UNIT (LENGTH_MEASURE( 1.000000000000000082E-05 ), #101, 'distance_accuracy_value', 'NONE');
#54 = DIRECTION ( 'NONE',  ( 3.491481338843133355E-15, -0.0000000000000000000, 1.000000000000000000 ) ) ;
#55 = CARTESIAN_POINT ( 'NONE',  ( 1.500000000000000222, 0.0000000000000000000, -5.237222008264700822E-15 ) ) ;
#56 = CARTESIAN_POINT ( 'NONE',  ( 8.900312526812723158E-14, 0.0000000000000000000, 25.49150822545066575 ) ) ;
#57 = PRODUCT_DEFINITION_FORMATION_WITH_SPECIFIED_SOURCE ( 'ANY', '', #219, .NOT_KNOWN. ) ;
#58 = ORIENTED_EDGE ( 'NONE', *, *, #241, .F. ) ;
#59 = PRODUCT_DEFINITION_SHAPE ( 'NONE', 'NONE',  #109 ) ;
#60 = EDGE_CURVE ( 'NONE', #178, #178, #161, .T. ) ;
#61 = DIRECTION ( 'NONE',  ( 1.000000000000000000, 0.0000000000000000000, -3.469446951953614978E-15 ) ) ;
#62 = AXIS2_PLACEMENT_3D ( 'NONE', #56, #11, #105 ) ;
#63 = FACE_OUTER_BOUND ( 'NONE', #46, .T. ) ;
#64 = PERSON_AND_ORGANIZATION ( #81, #249 ) ;
#65 = DATE_AND_TIME ( #26, #171 ) ;
#66 = CC_DESIGN_SECURITY_CLASSIFICATION ( #10, ( #57 ) ) ;
#67 = APPROVAL_STATUS ( 'not_yet_approved' ) ;
#68 = ORIENTED_EDGE ( 'NONE', *, *, #208, .F. ) ;
#69 = DATE_AND_TIME ( #244, #128 ) ;
#70 = EDGE_LOOP ( 'NONE', ( #58 ) ) ;
#71 = AXIS2_PLACEMENT_3D ( 'NONE', #102, #42, #61 ) ;
#72 = CC_DESIGN_DATE_AND_TIME_ASSIGNMENT ( #108, #242, ( #109 ) ) ;
#73 = DIRECTION ( 'NONE',  ( 1.000000000000000000, 0.0000000000000000000, -3.491481338843133355E-15 ) ) ;
#74 = DIRECTION ( 'NONE',  ( 1.000000000000000000, 0.0000000000000000000, -3.469446951953618133E-15 ) ) ;
#75 = FACE_OUTER_BOUND ( 'NONE', #98, .T. ) ;
#76 = CARTESIAN_POINT ( 'NONE',  ( 3.000000000000039968, 0.0000000000000000000, 12.42933039895924985 ) ) ;
#77 = PLANE ( 'NONE',  #90 ) ;
#78 = CARTESIAN_POINT ( 'NONE',  ( 1.899365848330664293E-13, -3.000000000000012879, 54.39999999999999858 ) ) ;
#79 = EDGE_LOOP ( 'NONE', ( #243 ) ) ;
#80 = DIRECTION ( 'NONE',  ( 3.491481338843133355E-15, -2.915042940252312719E-16, 1.000000000000000000 ) ) ;
#81 = PERSON ( 'UNSPECIFIED', 'UNSPECIFIED', 'UNSPECIFIED', ('UNSPECIFIED'), ('UNSPECIFIED'), ('UNSPECIFIED') ) ;
#82 = CARTESIAN_POINT ( 'NONE',  ( 2.500000000000003997, 0.0000000000000000000, 0.9999999999999915623 ) ) ;
#83 = CARTESIAN_POINT ( 'NONE',  ( 2.500000000000035527, 0.0000000000000000000, 10.29999999999999183 ) ) ;
#84 = DIRECTION ( 'NONE',  ( 0.0000000000000000000, -1.000000000000000000, 0.0000000000000000000 ) ) ;
#85 = DIRECTION ( 'NONE',  ( -3.491481338843133355E-15, 2.915042940252312226E-16, -1.000000000000000000 ) ) ;
#86 = AXIS2_PLACEMENT_3D ( 'NONE', #52, #195, #95 ) ;
#87 = COORDINATED_UNIVERSAL_TIME_OFFSET ( 1, 0, .AHEAD. ) ;
#88 = CALENDAR_DATE ( 2021, 9, 12 ) ;
#89 = APPROVAL_STATUS ( 'not_yet_approved' ) ;
#90 = AXIS2_PLACEMENT_3D ( 'NONE', #192, #85, #137 ) ;
#91 = EDGE_CURVE ( 'NONE', #36, #36, #130, .T. ) ;
#92 = PERSON_AND_ORGANIZATION_ROLE ( 'creator' ) ;
#93 = EDGE_LOOP ( 'NONE', ( #68 ) ) ;
#94 = CC_DESIGN_DATE_AND_TIME_ASSIGNMENT ( #69, #113, ( #10 ) ) ;
#95 = DIRECTION ( 'NONE',  ( 0.0000000000000000000, -1.000000000000000000, 0.0000000000000000000 ) ) ;
#96 = DIRECTION ( 'NONE',  ( 3.491481338843133355E-15, -2.915042940252312226E-16, 1.000000000000000000 ) ) ;
#97 = CC_DESIGN_APPROVAL ( #39, ( #10 ) ) ;
#98 = EDGE_LOOP ( 'NONE', ( #211 ) ) ;
#99 = MANIFOLD_SOLID_BREP ( 'Corps-Déplacer/Copier1[2]', #7 ) ;
#100 = CARTESIAN_POINT ( 'NONE',  ( 3.491481338843134144E-15, 0.0000000000000000000, 1.000000000000000222 ) ) ;
#101 =( LENGTH_UNIT ( ) NAMED_UNIT ( * ) SI_UNIT ( .MILLI., .METRE. ) );
#102 = CARTESIAN_POINT ( 'NONE',  ( 3.596225779008427356E-14, 0.0000000000000000000, 10.30000000000000071 ) ) ;
#103 = ADVANCED_FACE ( 'NONE', ( #164, #41 ), #30, .T. ) ;
#104 = DIRECTION ( 'NONE',  ( 1.000000000000000000, 0.0000000000000000000, -3.469446951953613400E-15 ) ) ;
#105 = DIRECTION ( 'NONE',  ( 1.000000000000000000, 0.0000000000000000000, -3.736327486719278336E-15 ) ) ;
#106 = PERSON_AND_ORGANIZATION ( #81, #249 ) ;
#107 = CYLINDRICAL_SURFACE ( 'NONE', #37, 2.999999999999996447 ) ;
#108 = DATE_AND_TIME ( #111, #174 ) ;
#109 = PRODUCT_DEFINITION ( 'UNKNOWN', '', #57, #213 ) ;
#110 =( GEOMETRIC_REPRESENTATION_CONTEXT ( 3 ) GLOBAL_UNCERTAINTY_ASSIGNED_CONTEXT ( ( #53 ) ) GLOBAL_UNIT_ASSIGNED_CONTEXT ( ( #101, #40, #234 ) ) REPRESENTATION_CONTEXT ( 'NONE', 'WORKASPACE' ) );
#111 = CALENDAR_DATE ( 2021, 9, 12 ) ;
#112 = APPLICATION_PROTOCOL_DEFINITION ( 'international standard', 'config_control_design', 1994, #170 ) ;
#113 = DATE_TIME_ROLE ( 'classification_date' ) ;
#114 = CIRCLE ( 'NONE', #147, 2.500000000000000444 ) ;
#115 = APPROVAL_PERSON_ORGANIZATION ( #207, #3, #23 ) ;
#116 = DIRECTION ( 'NONE',  ( 3.491481338843133355E-15, -0.0000000000000000000, 1.000000000000000000 ) ) ;
#117 = PRODUCT_RELATED_PRODUCT_CATEGORY ( 'detail', '', ( #219 ) ) ;
#118 = CARTESIAN_POINT ( 'NONE',  ( 3.596225779008427356E-14, 0.0000000000000000000, 10.30000000000000071 ) ) ;
#119 = VERTEX_POINT ( 'NONE', #13 ) ;
#120 = ORIENTED_EDGE ( 'NONE', *, *, #91, .T. ) ;
#121 = FACE_OUTER_BOUND ( 'NONE', #144, .T. ) ;
#122 = FACE_OUTER_BOUND ( 'NONE', #139, .T. ) ;
#123 = CARTESIAN_POINT ( 'NONE',  ( 3.491481338843134144E-15, 0.0000000000000000000, 1.000000000000000222 ) ) ;
#124 = CARTESIAN_POINT ( 'NONE',  ( 3.596225779008426725E-14, 4.212784989066895565E-15, 10.29999999999999893 ) ) ;
#125 = SHAPE_DEFINITION_REPRESENTATION ( #59, #32 ) ;
#126 = DIRECTION ( 'NONE',  ( -3.491481338843133355E-15, -4.090082513657181869E-16, -1.000000000000000000 ) ) ;
#127 = APPROVAL_DATE_TIME ( #65, #3 ) ;
#128 = LOCAL_TIME ( 13, 42, 25.00000000000000000, #260 ) ;
#129 = CC_DESIGN_PERSON_AND_ORGANIZATION_ASSIGNMENT ( #106, #184, ( #10 ) ) ;
#130 = CIRCLE ( 'NONE', #261, 2.568148347421859601 ) ;
#131 = ADVANCED_FACE ( 'NONE', ( #177 ), #250, .F. ) ;
#132 = ORIENTED_EDGE ( 'NONE', *, *, #60, .T. ) ;
#133 = CIRCLE ( 'NONE', #156, 1.500000000000000222 ) ;
#134 = DIRECTION ( 'NONE',  ( 3.491481338843133355E-15, -0.0000000000000000000, 1.000000000000000000 ) ) ;
#135 = EDGE_LOOP ( 'NONE', ( #201 ) ) ;
#136 = VERTEX_POINT ( 'NONE', #82 ) ;
#137 = DIRECTION ( 'NONE',  ( 1.017781802781736871E-30, 1.000000000000000000, 2.915042940252312226E-16 ) ) ;
#138 = TOROIDAL_SURFACE ( 'NONE', #190, 1.500000000000000000, 1.000000000000000444 ) ;
#139 = EDGE_LOOP ( 'NONE', ( #191 ) ) ;
#140 = ADVANCED_FACE ( 'NONE', ( #216 ), #239, .F. ) ;
#141 = AXIS2_PLACEMENT_3D ( 'NONE', #118, #9, #198 ) ;
#142 = CARTESIAN_POINT ( 'NONE',  ( 1.899365848330664293E-13, -8.642554377445803273E-15, 54.39999999999999858 ) ) ;
#143 = APPROVAL_PERSON_ORGANIZATION ( #49, #39, #146 ) ;
#144 = EDGE_LOOP ( 'NONE', ( #132 ) ) ;
#145 = DIRECTION ( 'NONE',  ( 0.0000000000000000000, 0.0000000000000000000, 1.000000000000000000 ) ) ;
#146 = APPROVAL_ROLE ( '' ) ;
#147 = AXIS2_PLACEMENT_3D ( 'NONE', #123, #254, #104 ) ;
#148 = SECURITY_CLASSIFICATION_LEVEL ( 'unclassified' ) ;
#149 = ADVANCED_FACE ( 'NONE', ( #75, #63 ), #158, .T. ) ;
#150 = DATE_AND_TIME ( #88, #238 ) ;
#151 = EDGE_LOOP ( 'NONE', ( #160 ) ) ;
#152 = AXIS2_PLACEMENT_3D ( 'NONE', #18, #126, #203 ) ;
#153 = EDGE_LOOP ( 'NONE', ( #252 ) ) ;
#154 = CC_DESIGN_PERSON_AND_ORGANIZATION_ASSIGNMENT ( #226, #166, ( #57 ) ) ;
#155 = FACE_OUTER_BOUND ( 'NONE', #93, .T. ) ;
#156 = AXIS2_PLACEMENT_3D ( 'NONE', #38, #134, #35 ) ;
#157 = AXIS2_PLACEMENT_3D ( 'NONE', #179, #256, #220 ) ;
#158 = CYLINDRICAL_SURFACE ( 'NONE', #222, 2.500000000000000000 ) ;
#159 = DIRECTION ( 'NONE',  ( 1.428044677076266556E-30, -1.000000000000000000, 4.090082513657181869E-16 ) ) ;
#160 = ORIENTED_EDGE ( 'NONE', *, *, #91, .F. ) ;
#161 = CIRCLE ( 'NONE', #141, 2.499999999999999556 ) ;
#162 = DIRECTION ( 'NONE',  ( 3.491481338843133355E-15, -2.915042940252312719E-16, 1.000000000000000000 ) ) ;
#163 = CARTESIAN_POINT ( 'NONE',  ( 4.339677514228193477E-14, 0.0000000000000000000, 12.42933039895926051 ) ) ;
#164 = FACE_BOUND ( 'NONE', #232, .T. ) ;
#165 = APPLICATION_PROTOCOL_DEFINITION ( 'international standard', 'config_control_design', 1994, #34 ) ;
#166 = PERSON_AND_ORGANIZATION_ROLE ( 'design_supplier' ) ;
#167 = ADVANCED_FACE ( 'NONE', ( #5, #22 ), #107, .T. ) ;
#168 = PERSON_AND_ORGANIZATION ( #81, #249 ) ;
#169 = EDGE_LOOP ( 'NONE', ( #29 ) ) ;
#170 = APPLICATION_CONTEXT ( 'configuration controlled 3d designs of mechanical parts and assemblies' ) ;
#171 = LOCAL_TIME ( 13, 42, 25.00000000000000000, #189 ) ;
#172 = CARTESIAN_POINT ( 'NONE',  ( 3.776958152230953783E-14, 0.0000000000000000000, 10.81763809020502975 ) ) ;
#173 = ORIENTED_EDGE ( 'NONE', *, *, #60, .F. ) ;
#174 = LOCAL_TIME ( 13, 42, 25.00000000000000000, #87 ) ;
#175 = FACE_OUTER_BOUND ( 'NONE', #223, .T. ) ;
#176 = MANIFOLD_SOLID_BREP ( 'Corps-Déplacer/Copier1[1]', #209 ) ;
#177 = FACE_OUTER_BOUND ( 'NONE', #245, .T. ) ;
#178 = VERTEX_POINT ( 'NONE', #83 ) ;
#179 = CARTESIAN_POINT ( 'NONE',  ( 3.596225779008427356E-14, 0.0000000000000000000, 10.30000000000000071 ) ) ;
#180 = LOCAL_TIME ( 13, 42, 25.00000000000000000, #227 ) ;
#181 = VERTEX_POINT ( 'NONE', #55 ) ;
#182 = CARTESIAN_POINT ( 'NONE',  ( 1.899365848330664293E-13, -8.642554377445803273E-15, 54.39999999999999858 ) ) ;
#183 = DIRECTION ( 'NONE',  ( -1.017781802781736871E-30, -1.000000000000000000, -2.915042940252312226E-16 ) ) ;
#184 = PERSON_AND_ORGANIZATION_ROLE ( 'classification_officer' ) ;
#185 = APPROVAL_ROLE ( '' ) ;
#186 = CIRCLE ( 'NONE', #50, 2.999999999999996447 ) ;
#187 = DIRECTION ( 'NONE',  ( 1.000000000000000000, 0.0000000000000000000, -3.491481338843133355E-15 ) ) ;
#188 = CALENDAR_DATE ( 2021, 9, 12 ) ;
#189 = COORDINATED_UNIVERSAL_TIME_OFFSET ( 1, 0, .AHEAD. ) ;
#190 = AXIS2_PLACEMENT_3D ( 'NONE', #100, #229, #73 ) ;
#191 = ORIENTED_EDGE ( 'NONE', *, *, #248, .T. ) ;
#192 = CARTESIAN_POINT ( 'NONE',  ( 1.920314736363723472E-13, -8.817456953860941711E-15, 55.00000000000000000 ) ) ;
#193 = EDGE_CURVE ( 'NONE', #15, #15, #186, .T. ) ;
#194 = DIRECTION ( 'NONE',  ( 3.491481338843133355E-15, 4.090082513657181869E-16, 1.000000000000000000 ) ) ;
#195 = DIRECTION ( 'NONE',  ( 3.491481338843133355E-15, -2.915042940252312719E-16, 1.000000000000000000 ) ) ;
#196 = CC_DESIGN_PERSON_AND_ORGANIZATION_ASSIGNMENT ( #64, #47, ( #219 ) ) ;
#197 = VERTEX_POINT ( 'NONE', #258 ) ;
#198 = DIRECTION ( 'NONE',  ( 1.000000000000000000, 0.0000000000000000000, -3.469446951953614978E-15 ) ) ;
#199 = PLANE ( 'NONE',  #152 ) ;
#200 = TOROIDAL_SURFACE ( 'NONE', #157, 4.500000000000000000, 2.000000000000000000 ) ;
#201 = ORIENTED_EDGE ( 'NONE', *, *, #241, .T. ) ;
#202 = DIRECTION ( 'NONE',  ( 1.000000000000000000, 0.0000000000000000000, 0.0000000000000000000 ) ) ;
#203 = DIRECTION ( 'NONE',  ( -1.428044677076266556E-30, 1.000000000000000000, -4.090082513657181869E-16 ) ) ;
#204 = PERSON_AND_ORGANIZATION ( #81, #249 ) ;
#205 = CARTESIAN_POINT ( 'NONE',  ( 0.0000000000000000000, 0.0000000000000000000, 0.0000000000000000000 ) ) ;
#206 = ADVANCED_FACE ( 'NONE', ( #12, #257 ), #200, .F. ) ;
#207 = PERSON_AND_ORGANIZATION ( #81, #249 ) ;
#208 = EDGE_CURVE ( 'NONE', #136, #136, #114, .T. ) ;
#209 = CLOSED_SHELL ( 'NONE', ( #167, #235, #44, #103, #206, #140 ) ) ;
#210 = CIRCLE ( 'NONE', #217, 3.000000000000004441 ) ;
#211 = ORIENTED_EDGE ( 'NONE', *, *, #208, .T. ) ;
#212 = DIRECTION ( 'NONE',  ( 1.000000000000000000, 0.0000000000000000000, -3.377381757791133600E-15 ) ) ;
#213 = DESIGN_CONTEXT ( 'detailed design', #170, 'design' ) ;
#214 = FACE_OUTER_BOUND ( 'NONE', #79, .T. ) ;
#215 = CC_DESIGN_PERSON_AND_ORGANIZATION_ASSIGNMENT ( #204, #92, ( #109 ) ) ;
#216 = FACE_OUTER_BOUND ( 'NONE', #70, .T. ) ;
#217 = AXIS2_PLACEMENT_3D ( 'NONE', #142, #162, #17 ) ;
#218 = ORIENTED_EDGE ( 'NONE', *, *, #193, .T. ) ;
#219 = PRODUCT ( '392827', '392827', '', ( #240 ) ) ;
#220 = DIRECTION ( 'NONE',  ( 1.000000000000000000, 0.0000000000000000000, -3.491481338843133355E-15 ) ) ;
#221 = CC_DESIGN_PERSON_AND_ORGANIZATION_ASSIGNMENT ( #168, #262, ( #57 ) ) ;
#222 = AXIS2_PLACEMENT_3D ( 'NONE', #230, #54, #187 ) ;
#223 = EDGE_LOOP ( 'NONE', ( #247 ) ) ;
#224 = APPROVAL ( #1, 'UNSPECIFIED' ) ;
#225 = AXIS2_PLACEMENT_3D ( 'NONE', #33, #194, #159 ) ;
#226 = PERSON_AND_ORGANIZATION ( #81, #249 ) ;
#227 = COORDINATED_UNIVERSAL_TIME_OFFSET ( 1, 0, .AHEAD. ) ;
#228 = ADVANCED_FACE ( 'NONE', ( #121 ), #199, .F. ) ;
#229 = DIRECTION ( 'NONE',  ( 3.491481338843133355E-15, -0.0000000000000000000, 1.000000000000000000 ) ) ;
#230 = CARTESIAN_POINT ( 'NONE',  ( 0.0000000000000000000, 0.0000000000000000000, 0.0000000000000000000 ) ) ;
#231 = FACE_BOUND ( 'NONE', #169, .T. ) ;
#232 = EDGE_LOOP ( 'NONE', ( #120 ) ) ;
#233 = CIRCLE ( 'NONE', #71, 2.499999999999999556 ) ;
#234 =( NAMED_UNIT ( * ) SI_UNIT ( $, .STERADIAN. ) SOLID_ANGLE_UNIT ( ) );
#235 = ADVANCED_FACE ( 'NONE', ( #231, #122 ), #246, .T. ) ;
#236 = CARTESIAN_POINT ( 'NONE',  ( 2.568148347421897348, 0.0000000000000000000, 10.81763809020502087 ) ) ;
#237 = AXIS2_PLACEMENT_3D ( 'NONE', #124, #96, #183 ) ;
#238 = LOCAL_TIME ( 13, 42, 25.00000000000000000, #263 ) ;
#239 = PLANE ( 'NONE',  #237 ) ;
#240 = MECHANICAL_CONTEXT ( 'NONE', #34, 'mechanical' ) ;
#241 = EDGE_CURVE ( 'NONE', #119, #119, #233, .T. ) ;
#242 = DATE_TIME_ROLE ( 'creation_date' ) ;
#243 = ORIENTED_EDGE ( 'NONE', *, *, #19, .T. ) ;
#244 = CALENDAR_DATE ( 2021, 9, 12 ) ;
#245 = EDGE_LOOP ( 'NONE', ( #6 ) ) ;
#246 = CONICAL_SURFACE ( 'NONE', #24, 3.000000000000004441, 0.7853981633974453924 ) ;
#247 = ORIENTED_EDGE ( 'NONE', *, *, #51, .T. ) ;
#248 = EDGE_CURVE ( 'NONE', #253, #253, #210, .T. ) ;
#249 = ORGANIZATION ( 'UNSPECIFIED', 'UNSPECIFIED', '' ) ;
#250 = PLANE ( 'NONE',  #225 ) ;
#251 = DIRECTION ( 'NONE',  ( 0.0000000000000000000, 1.000000000000000000, 0.0000000000000000000 ) ) ;
#252 = ORIENTED_EDGE ( 'NONE', *, *, #248, .F. ) ;
#253 = VERTEX_POINT ( 'NONE', #78 ) ;
#254 = DIRECTION ( 'NONE',  ( 3.491481338843133355E-15, -0.0000000000000000000, 1.000000000000000000 ) ) ;
#255 = AXIS2_PLACEMENT_3D ( 'NONE', #205, #145, #202 ) ;
#256 = DIRECTION ( 'NONE',  ( 3.491481338843133355E-15, -0.0000000000000000000, 1.000000000000000000 ) ) ;
#257 = FACE_OUTER_BOUND ( 'NONE', #151, .T. ) ;
#258 = CARTESIAN_POINT ( 'NONE',  ( 1.920314736363723472E-13, -2.400000000000013234, 55.00000000000000000 ) ) ;
#259 = EDGE_LOOP ( 'NONE', ( #20 ) ) ;
#260 = COORDINATED_UNIVERSAL_TIME_OFFSET ( 1, 0, .AHEAD. ) ;
#261 = AXIS2_PLACEMENT_3D ( 'NONE', #172, #116, #212 ) ;
#262 = PERSON_AND_ORGANIZATION_ROLE ( 'creator' ) ;
#263 = COORDINATED_UNIVERSAL_TIME_OFFSET ( 1, 0, .AHEAD. ) ;
ENDSEC;
END-ISO-10303-21;
