ISO-10303-21;
HEADER;
FILE_DESCRIPTION (( 'STEP AP203' ),
    '1' );
FILE_NAME ('392824.step',
    '2021-12-09T12:42:23',
    ( '' ),
    ( '' ),
    'SwSTEP 2.0',
    'SolidWorks 2019',
    '' );
FILE_SCHEMA (( 'CONFIG_CONTROL_DESIGN' ));
ENDSEC;

DATA;
#1 = AXIS2_PLACEMENT_3D ( 'NONE', #119, #182, #238 ) ;
#2 = CARTESIAN_POINT ( 'NONE',  ( 2.068148347421890243, 0.0000000000000000000, 8.817638090205020873 ) ) ;
#3 = COORDINATED_UNIVERSAL_TIME_OFFSET ( 1, 0, .AHEAD. ) ;
#4 = DESIGN_CONTEXT ( 'detailed design', #127, 'design' ) ;
#5 = CARTESIAN_POINT ( 'NONE',  ( 1.899365848330664293E-13, -3.000000000000012879, 54.39999999999999858 ) ) ;
#6 = CALENDAR_DATE ( 2021, 9, 12 ) ;
#7 = CARTESIAN_POINT ( 'NONE',  ( 1.899365848330664293E-13, -8.643751163763465931E-15, 54.39999999999999858 ) ) ;
#8 = FACE_OUTER_BOUND ( 'NONE', #22, .T. ) ;
#9 = EDGE_LOOP ( 'NONE', ( #157 ) ) ;
#10 = PERSON_AND_ORGANIZATION ( #59, #84 ) ;
#11 = DATE_TIME_ROLE ( 'creation_date' ) ;
#12 = ADVANCED_BREP_SHAPE_REPRESENTATION ( '392824', ( #179, #88, #1 ), #200 ) ;
#13 = EDGE_CURVE ( 'NONE', #43, #43, #132, .T. ) ;
#14 = PLANE ( 'NONE',  #138 ) ;
#15 = AXIS2_PLACEMENT_3D ( 'NONE', #109, #57, #147 ) ;
#16 = TOROIDAL_SURFACE ( 'NONE', #75, 4.000000000000000000, 2.000000000000000000 ) ;
#17 = EDGE_CURVE ( 'NONE', #173, #173, #169, .T. ) ;
#18 = ORIENTED_EDGE ( 'NONE', *, *, #13, .F. ) ;
#19 = COORDINATED_UNIVERSAL_TIME_OFFSET ( 1, 0, .AHEAD. ) ;
#20 = DIRECTION ( 'NONE',  ( 3.491481338843133355E-15, -2.895096501624577769E-16, 1.000000000000000000 ) ) ;
#21 = APPROVAL_PERSON_ORGANIZATION ( #104, #146, #197 ) ;
#22 = EDGE_LOOP ( 'NONE', ( #36 ) ) ;
#23 = ADVANCED_FACE ( 'NONE', ( #142, #122 ), #31, .T. ) ;
#24 = CALENDAR_DATE ( 2021, 9, 12 ) ;
#25 = CALENDAR_DATE ( 2021, 9, 12 ) ;
#26 = APPROVAL_PERSON_ORGANIZATION ( #152, #77, #247 ) ;
#27 = DIRECTION ( 'NONE',  ( -3.491481338843133355E-15, 2.895096501624577769E-16, -1.000000000000000000 ) ) ;
#28 = APPROVAL_STATUS ( 'not_yet_approved' ) ;
#29 = EDGE_CURVE ( 'NONE', #253, #253, #255, .T. ) ;
#30 = FACE_OUTER_BOUND ( 'NONE', #133, .T. ) ;
#31 = CYLINDRICAL_SURFACE ( 'NONE', #234, 2.000000000000000000 ) ;
#32 = AXIS2_PLACEMENT_3D ( 'NONE', #121, #118, #196 ) ;
#33 = ADVANCED_FACE ( 'NONE', ( #30 ), #184, .F. ) ;
#34 = PERSON_AND_ORGANIZATION ( #59, #84 ) ;
#35 = DIRECTION ( 'NONE',  ( -3.491481338843133355E-15, 0.0000000000000000000, -1.000000000000000000 ) ) ;
#36 = ORIENTED_EDGE ( 'NONE', *, *, #158, .T. ) ;
#37 = CALENDAR_DATE ( 2021, 9, 12 ) ;
#38 = AXIS2_PLACEMENT_3D ( 'NONE', #181, #72, #93 ) ;
#39 = EDGE_LOOP ( 'NONE', ( #213 ) ) ;
#40 = EDGE_CURVE ( 'NONE', #113, #113, #134, .T. ) ;
#41 = CARTESIAN_POINT ( 'NONE',  ( 3.491481338843133355E-15, 0.0000000000000000000, 1.000000000000000000 ) ) ;
#42 = AXIS2_PLACEMENT_3D ( 'NONE', #172, #250, #163 ) ;
#43 = VERTEX_POINT ( 'NONE', #92 ) ;
#44 = EDGE_LOOP ( 'NONE', ( #125 ) ) ;
#45 = CARTESIAN_POINT ( 'NONE',  ( 3.000000000000039524, 0.0000000000000000000, 12.29535580274374063 ) ) ;
#46 = CARTESIAN_POINT ( 'NONE',  ( 0.0000000000000000000, 0.0000000000000000000, 0.0000000000000000000 ) ) ;
#47 = APPLICATION_CONTEXT ( 'configuration controlled 3d designs of mechanical parts and assemblies' ) ;
#48 = EDGE_LOOP ( 'NONE', ( #225 ) ) ;
#49 = AXIS2_PLACEMENT_3D ( 'NONE', #120, #69, #78 ) ;
#50 = CIRCLE ( 'NONE', #105, 1.000000000000000222 ) ;
#51 = DIRECTION ( 'NONE',  ( 1.000000000000000000, 0.0000000000000000000, -3.469446951953614189E-15 ) ) ;
#52 = CC_DESIGN_PERSON_AND_ORGANIZATION_ASSIGNMENT ( #34, #263, ( #180 ) ) ;
#53 = DATE_AND_TIME ( #24, #166 ) ;
#54 = FACE_OUTER_BOUND ( 'NONE', #82, .T. ) ;
#55 = CIRCLE ( 'NONE', #95, 2.999999999999996447 ) ;
#56 = CC_DESIGN_APPROVAL ( #77, ( #257 ) ) ;
#57 = DIRECTION ( 'NONE',  ( 3.491481338843133355E-15, -2.895096501624577769E-16, 1.000000000000000000 ) ) ;
#58 = EDGE_LOOP ( 'NONE', ( #150 ) ) ;
#59 = PERSON ( 'UNSPECIFIED', 'UNSPECIFIED', 'UNSPECIFIED', ('UNSPECIFIED'), ('UNSPECIFIED'), ('UNSPECIFIED') ) ;
#60 = APPROVAL ( #202, 'UNSPECIFIED' ) ;
#61 = CONICAL_SURFACE ( 'NONE', #226, 3.000000000000004441, 0.7853981633974453924 ) ;
#62 = ORIENTED_EDGE ( 'NONE', *, *, #205, .T. ) ;
#63 = APPROVAL_STATUS ( 'not_yet_approved' ) ;
#64 = ADVANCED_FACE ( 'NONE', ( #54 ), #98, .F. ) ;
#65 = ORIENTED_EDGE ( 'NONE', *, *, #205, .F. ) ;
#66 = AXIS2_PLACEMENT_3D ( 'NONE', #155, #71, #51 ) ;
#67 = TOROIDAL_SURFACE ( 'NONE', #204, 1.000000000000000000, 1.000000000000000000 ) ;
#68 = DIRECTION ( 'NONE',  ( 1.000000000000000000, 0.0000000000000000000, -3.469446951953614189E-15 ) ) ;
#69 = DIRECTION ( 'NONE',  ( 3.491481338843133355E-15, -0.0000000000000000000, 1.000000000000000000 ) ) ;
#70 = PRODUCT_DEFINITION_SHAPE ( 'NONE', 'NONE',  #180 ) ;
#71 = DIRECTION ( 'NONE',  ( 3.491481338843133355E-15, -0.0000000000000000000, 1.000000000000000000 ) ) ;
#72 = DIRECTION ( 'NONE',  ( 3.491481338843133355E-15, -2.895096501624577769E-16, 1.000000000000000000 ) ) ;
#73 = DIRECTION ( 'NONE',  ( 0.0000000000000000000, 1.000000000000000000, 0.0000000000000000000 ) ) ;
#74 = ADVANCED_FACE ( 'NONE', ( #212, #160 ), #16, .F. ) ;
#75 = AXIS2_PLACEMENT_3D ( 'NONE', #259, #139, #176 ) ;
#76 = PERSON_AND_ORGANIZATION_ROLE ( 'classification_officer' ) ;
#77 = APPROVAL ( #63, 'UNSPECIFIED' ) ;
#78 = DIRECTION ( 'NONE',  ( 1.000000000000000000, 0.0000000000000000000, -3.469446951953614189E-15 ) ) ;
#79 = DATE_AND_TIME ( #99, #187 ) ;
#80 = DIRECTION ( 'NONE',  ( -3.491481338843133355E-15, -5.665835793645583166E-16, -1.000000000000000000 ) ) ;
#81 = ORIENTED_EDGE ( 'NONE', *, *, #40, .F. ) ;
#82 = EDGE_LOOP ( 'NONE', ( #145 ) ) ;
#83 = SHAPE_DEFINITION_REPRESENTATION ( #70, #12 ) ;
#84 = ORGANIZATION ( 'UNSPECIFIED', 'UNSPECIFIED', '' ) ;
#85 = VERTEX_POINT ( 'NONE', #215 ) ;
#86 = ADVANCED_FACE ( 'NONE', ( #193, #254 ), #162, .T. ) ;
#87 = DIRECTION ( 'NONE',  ( 3.491481338843133355E-15, -2.895096501624577769E-16, 1.000000000000000000 ) ) ;
#88 = MANIFOLD_SOLID_BREP ( 'Corps-Déplacer/Copier1[2]', #214 ) ;
#89 = VERTEX_POINT ( 'NONE', #45 ) ;
#90 = AXIS2_PLACEMENT_3D ( 'NONE', #232, #91, #68 ) ;
#91 = DIRECTION ( 'NONE',  ( 3.491481338843133355E-15, -0.0000000000000000000, 1.000000000000000000 ) ) ;
#92 = CARTESIAN_POINT ( 'NONE',  ( 1.920314736363723472E-13, -2.400000000000013234, 55.00000000000000000 ) ) ;
#93 = DIRECTION ( 'NONE',  ( 0.0000000000000000000, -1.000000000000000000, 0.0000000000000000000 ) ) ;
#94 = PERSON_AND_ORGANIZATION_ROLE ( 'design_supplier' ) ;
#95 = AXIS2_PLACEMENT_3D ( 'NONE', #221, #35, #203 ) ;
#96 = APPROVAL_ROLE ( '' ) ;
#97 = CC_DESIGN_PERSON_AND_ORGANIZATION_ASSIGNMENT ( #256, #76, ( #257 ) ) ;
#98 = PLANE ( 'NONE',  #248 ) ;
#99 = CALENDAR_DATE ( 2021, 9, 12 ) ;
#100 = EDGE_LOOP ( 'NONE', ( #246 ) ) ;
#101 = DIRECTION ( 'NONE',  ( 3.491481338843133355E-15, -0.0000000000000000000, 1.000000000000000000 ) ) ;
#102 = EDGE_LOOP ( 'NONE', ( #65 ) ) ;
#103 = EDGE_LOOP ( 'NONE', ( #18 ) ) ;
#104 = PERSON_AND_ORGANIZATION ( #59, #84 ) ;
#105 = AXIS2_PLACEMENT_3D ( 'NONE', #210, #135, #190 ) ;
#106 = DIRECTION ( 'NONE',  ( 0.0000000000000000000, -1.000000000000000000, 0.0000000000000000000 ) ) ;
#107 = FACE_OUTER_BOUND ( 'NONE', #153, .T. ) ;
#108 = APPROVAL_PERSON_ORGANIZATION ( #236, #60, #96 ) ;
#109 = CARTESIAN_POINT ( 'NONE',  ( 1.920314736363723472E-13, -8.817456953860941711E-15, 55.00000000000000000 ) ) ;
#110 = UNCERTAINTY_MEASURE_WITH_UNIT (LENGTH_MEASURE( 1.000000000000000082E-05 ), #156, 'distance_accuracy_value', 'NONE');
#111 = PLANE ( 'NONE',  #123 ) ;
#112 = DATE_TIME_ROLE ( 'classification_date' ) ;
#113 = VERTEX_POINT ( 'NONE', #5 ) ;
#114 = EDGE_LOOP ( 'NONE', ( #62 ) ) ;
#115 = CARTESIAN_POINT ( 'NONE',  ( 2.897929511239801316E-14, 4.702643708725835369E-15, 8.300000000000002487 ) ) ;
#116 = PERSON_AND_ORGANIZATION ( #59, #84 ) ;
#117 = ADVANCED_FACE ( 'NONE', ( #198 ), #14, .F. ) ;
#118 = DIRECTION ( 'NONE',  ( 3.491481338843133355E-15, -0.0000000000000000000, 1.000000000000000000 ) ) ;
#119 = CARTESIAN_POINT ( 'NONE',  ( 0.0000000000000000000, 0.0000000000000000000, 0.0000000000000000000 ) ) ;
#120 = CARTESIAN_POINT ( 'NONE',  ( 2.897929511239800685E-14, 0.0000000000000000000, 8.300000000000000711 ) ) ;
#121 = CARTESIAN_POINT ( 'NONE',  ( 8.202016259044102798E-14, 0.0000000000000000000, 23.49150822545067996 ) ) ;
#122 = FACE_OUTER_BOUND ( 'NONE', #39, .T. ) ;
#123 = AXIS2_PLACEMENT_3D ( 'NONE', #115, #87, #230 ) ;
#124 = EDGE_CURVE ( 'NONE', #89, #89, #55, .T. ) ;
#125 = ORIENTED_EDGE ( 'NONE', *, *, #29, .F. ) ;
#126 = CC_DESIGN_APPROVAL ( #146, ( #180 ) ) ;
#127 = APPLICATION_CONTEXT ( 'configuration controlled 3d designs of mechanical parts and assemblies' ) ;
#128 = CC_DESIGN_PERSON_AND_ORGANIZATION_ASSIGNMENT ( #10, #94, ( #191 ) ) ;
#129 = VERTEX_POINT ( 'NONE', #171 ) ;
#130 = DIRECTION ( 'NONE',  ( 3.491481338843133355E-15, -0.0000000000000000000, 1.000000000000000000 ) ) ;
#131 = FACE_BOUND ( 'NONE', #103, .T. ) ;
#132 = CIRCLE ( 'NONE', #15, 2.400000000000004352 ) ;
#133 = EDGE_LOOP ( 'NONE', ( #227 ) ) ;
#134 = CIRCLE ( 'NONE', #38, 3.000000000000004441 ) ;
#135 = DIRECTION ( 'NONE',  ( 3.491481338843133355E-15, -0.0000000000000000000, 1.000000000000000000 ) ) ;
#136 = PERSON_AND_ORGANIZATION_ROLE ( 'design_owner' ) ;
#137 = APPLICATION_PROTOCOL_DEFINITION ( 'international standard', 'config_control_design', 1994, #127 ) ;
#138 = AXIS2_PLACEMENT_3D ( 'NONE', #165, #80, #206 ) ;
#139 = DIRECTION ( 'NONE',  ( 3.491481338843133355E-15, -0.0000000000000000000, 1.000000000000000000 ) ) ;
#140 = MECHANICAL_CONTEXT ( 'NONE', #47, 'mechanical' ) ;
#141 = ADVANCED_FACE ( 'NONE', ( #107, #144 ), #186, .T. ) ;
#142 = FACE_OUTER_BOUND ( 'NONE', #114, .T. ) ;
#143 = LOCAL_TIME ( 13, 42, 23.00000000000000000, #3 ) ;
#144 = FACE_OUTER_BOUND ( 'NONE', #148, .T. ) ;
#145 = ORIENTED_EDGE ( 'NONE', *, *, #13, .T. ) ;
#146 = APPROVAL ( #28, 'UNSPECIFIED' ) ;
#147 = DIRECTION ( 'NONE',  ( 0.0000000000000000000, -1.000000000000000000, 0.0000000000000000000 ) ) ;
#148 = EDGE_LOOP ( 'NONE', ( #222 ) ) ;
#149 = DATE_AND_TIME ( #25, #239 ) ;
#150 = ORIENTED_EDGE ( 'NONE', *, *, #124, .T. ) ;
#151 =( NAMED_UNIT ( * ) PLANE_ANGLE_UNIT ( ) SI_UNIT ( $, .RADIAN. ) );
#152 = PERSON_AND_ORGANIZATION ( #59, #84 ) ;
#153 = EDGE_LOOP ( 'NONE', ( #81 ) ) ;
#154 = DATE_AND_TIME ( #6, #143 ) ;
#155 = CARTESIAN_POINT ( 'NONE',  ( 3.491481338843133355E-15, 0.0000000000000000000, 1.000000000000000000 ) ) ;
#156 =( LENGTH_UNIT ( ) NAMED_UNIT ( * ) SI_UNIT ( .MILLI., .METRE. ) );
#157 = ORIENTED_EDGE ( 'NONE', *, *, #40, .T. ) ;
#158 = EDGE_CURVE ( 'NONE', #211, #211, #50, .T. ) ;
#159 = COORDINATED_UNIVERSAL_TIME_OFFSET ( 1, 0, .AHEAD. ) ;
#160 = FACE_OUTER_BOUND ( 'NONE', #44, .T. ) ;
#161 = COORDINATED_UNIVERSAL_TIME_OFFSET ( 1, 0, .AHEAD. ) ;
#162 = CONICAL_SURFACE ( 'NONE', #32, 5.999999999999996447, 0.2617993877991428020 ) ;
#163 = DIRECTION ( 'NONE',  ( 1.978215994246302745E-30, -1.000000000000000000, 5.665835793645583166E-16 ) ) ;
#164 = CC_DESIGN_DATE_AND_TIME_ASSIGNMENT ( #79, #11, ( #180 ) ) ;
#165 = CARTESIAN_POINT ( 'NONE',  ( 2.897929511239801316E-14, 4.702643708725835369E-15, 8.300000000000002487 ) ) ;
#166 = LOCAL_TIME ( 13, 42, 23.00000000000000000, #217 ) ;
#167 = PERSON_AND_ORGANIZATION_ROLE ( 'creator' ) ;
#168 = CARTESIAN_POINT ( 'NONE',  ( 1.920314736363723472E-13, -8.817456953860941711E-15, 55.00000000000000000 ) ) ;
#169 = CIRCLE ( 'NONE', #49, 2.000000000000000000 ) ;
#170 = DIRECTION ( 'NONE',  ( -3.491481338843133355E-15, 2.895096501624577769E-16, -1.000000000000000000 ) ) ;
#171 = CARTESIAN_POINT ( 'NONE',  ( 2.000000000000003553, 0.0000000000000000000, 0.9999999999999931166 ) ) ;
#172 = CARTESIAN_POINT ( 'NONE',  ( -2.967323991369449913E-30, 2.999999999999995559, -8.498753690468361930E-16 ) ) ;
#173 = VERTEX_POINT ( 'NONE', #216 ) ;
#174 = PRODUCT ( '392824', '392824', '', ( #140 ) ) ;
#175 = FACE_OUTER_BOUND ( 'NONE', #9, .T. ) ;
#176 = DIRECTION ( 'NONE',  ( 1.000000000000000000, 0.0000000000000000000, -3.491481338843133355E-15 ) ) ;
#177 = SECURITY_CLASSIFICATION_LEVEL ( 'unclassified' ) ;
#178 = AXIS2_PLACEMENT_3D ( 'NONE', #168, #20, #106 ) ;
#179 = MANIFOLD_SOLID_BREP ( 'Corps-Déplacer/Copier1[1]', #244 ) ;
#180 = PRODUCT_DEFINITION ( 'UNKNOWN', '', #191, #4 ) ;
#181 = CARTESIAN_POINT ( 'NONE',  ( 1.899365848330664293E-13, -8.643751163763465931E-15, 54.39999999999999858 ) ) ;
#182 = DIRECTION ( 'NONE',  ( 0.0000000000000000000, 0.0000000000000000000, 1.000000000000000000 ) ) ;
#183 = CIRCLE ( 'NONE', #90, 2.000000000000000000 ) ;
#184 = PLANE ( 'NONE',  #42 ) ;
#185 = APPROVAL_DATE_TIME ( #242, #60 ) ;
#186 = CYLINDRICAL_SURFACE ( 'NONE', #178, 2.999999999999996447 ) ;
#187 = LOCAL_TIME ( 13, 42, 23.00000000000000000, #159 ) ;
#188 = ADVANCED_FACE ( 'NONE', ( #8, #228 ), #67, .T. ) ;
#189 = ORIENTED_EDGE ( 'NONE', *, *, #29, .T. ) ;
#190 = DIRECTION ( 'NONE',  ( 1.000000000000000000, 0.0000000000000000000, -3.491481338843133355E-15 ) ) ;
#191 = PRODUCT_DEFINITION_FORMATION_WITH_SPECIFIED_SOURCE ( 'ANY', '', #174, .NOT_KNOWN. ) ;
#192 = FACE_OUTER_BOUND ( 'NONE', #262, .T. ) ;
#193 = FACE_BOUND ( 'NONE', #224, .T. ) ;
#194 = ORIENTED_EDGE ( 'NONE', *, *, #17, .F. ) ;
#195 = PERSON_AND_ORGANIZATION ( #59, #84 ) ;
#196 = DIRECTION ( 'NONE',  ( 1.000000000000000000, 0.0000000000000000000, -3.469446951953616161E-15 ) ) ;
#197 = APPROVAL_ROLE ( '' ) ;
#198 = FACE_OUTER_BOUND ( 'NONE', #48, .T. ) ;
#199 = AXIS2_PLACEMENT_3D ( 'NONE', #237, #101, #201 ) ;
#200 =( GEOMETRIC_REPRESENTATION_CONTEXT ( 3 ) GLOBAL_UNCERTAINTY_ASSIGNED_CONTEXT ( ( #110 ) ) GLOBAL_UNIT_ASSIGNED_CONTEXT ( ( #156, #151, #209 ) ) REPRESENTATION_CONTEXT ( 'NONE', 'WORKASPACE' ) );
#201 = DIRECTION ( 'NONE',  ( 1.000000000000000000, 0.0000000000000000000, -3.355123878109231823E-15 ) ) ;
#202 = APPROVAL_STATUS ( 'not_yet_approved' ) ;
#203 = DIRECTION ( 'NONE',  ( 1.000000000000000000, 0.0000000000000000000, -3.469446951953618133E-15 ) ) ;
#204 = AXIS2_PLACEMENT_3D ( 'NONE', #41, #130, #245 ) ;
#205 = EDGE_CURVE ( 'NONE', #129, #129, #219, .T. ) ;
#206 = DIRECTION ( 'NONE',  ( -1.978215994246302745E-30, 1.000000000000000000, -5.665835793645583166E-16 ) ) ;
#207 = ADVANCED_FACE ( 'NONE', ( #192 ), #111, .F. ) ;
#208 = CC_DESIGN_SECURITY_CLASSIFICATION ( #257, ( #191 ) ) ;
#209 =( NAMED_UNIT ( * ) SI_UNIT ( $, .STERADIAN. ) SOLID_ANGLE_UNIT ( ) );
#210 = CARTESIAN_POINT ( 'NONE',  ( 0.0000000000000000000, 0.0000000000000000000, 0.0000000000000000000 ) ) ;
#211 = VERTEX_POINT ( 'NONE', #251 ) ;
#212 = FACE_OUTER_BOUND ( 'NONE', #100, .T. ) ;
#213 = ORIENTED_EDGE ( 'NONE', *, *, #258, .F. ) ;
#214 = CLOSED_SHELL ( 'NONE', ( #33, #188, #23, #117 ) ) ;
#215 = CARTESIAN_POINT ( 'NONE',  ( 2.000000000000029310, 0.0000000000000000000, 8.299999999999993605 ) ) ;
#216 = CARTESIAN_POINT ( 'NONE',  ( 2.000000000000029310, 0.0000000000000000000, 8.299999999999993605 ) ) ;
#217 = COORDINATED_UNIVERSAL_TIME_OFFSET ( 1, 0, .AHEAD. ) ;
#218 = DIRECTION ( 'NONE',  ( 3.491481338843133355E-15, -0.0000000000000000000, 1.000000000000000000 ) ) ;
#219 = CIRCLE ( 'NONE', #66, 2.000000000000000000 ) ;
#220 = CC_DESIGN_PERSON_AND_ORGANIZATION_ASSIGNMENT ( #195, #167, ( #191 ) ) ;
#221 = CARTESIAN_POINT ( 'NONE',  ( 4.292900533971643827E-14, 0.0000000000000000000, 12.29535580274375128 ) ) ;
#222 = ORIENTED_EDGE ( 'NONE', *, *, #124, .F. ) ;
#223 = APPROVAL_DATE_TIME ( #149, #146 ) ;
#224 = EDGE_LOOP ( 'NONE', ( #189 ) ) ;
#225 = ORIENTED_EDGE ( 'NONE', *, *, #258, .T. ) ;
#226 = AXIS2_PLACEMENT_3D ( 'NONE', #7, #170, #73 ) ;
#227 = ORIENTED_EDGE ( 'NONE', *, *, #158, .F. ) ;
#228 = FACE_OUTER_BOUND ( 'NONE', #102, .T. ) ;
#229 = APPROVAL_DATE_TIME ( #154, #77 ) ;
#230 = DIRECTION ( 'NONE',  ( -1.010817540957225187E-30, -1.000000000000000000, -2.895096501624577769E-16 ) ) ;
#231 = DIRECTION ( 'NONE',  ( 1.010817540957225187E-30, 1.000000000000000000, 2.895096501624577769E-16 ) ) ;
#232 = CARTESIAN_POINT ( 'NONE',  ( 2.897929511239800685E-14, 0.0000000000000000000, 8.300000000000000711 ) ) ;
#233 = CC_DESIGN_DATE_AND_TIME_ASSIGNMENT ( #53, #112, ( #257 ) ) ;
#234 = AXIS2_PLACEMENT_3D ( 'NONE', #46, #218, #252 ) ;
#235 = LOCAL_TIME ( 13, 42, 23.00000000000000000, #19 ) ;
#236 = PERSON_AND_ORGANIZATION ( #59, #84 ) ;
#237 = CARTESIAN_POINT ( 'NONE',  ( 3.078661884462326481E-14, 0.0000000000000000000, 8.817638090205027979 ) ) ;
#238 = DIRECTION ( 'NONE',  ( 1.000000000000000000, 0.0000000000000000000, 0.0000000000000000000 ) ) ;
#239 = LOCAL_TIME ( 13, 42, 23.00000000000000000, #161 ) ;
#240 = CARTESIAN_POINT ( 'NONE',  ( 1.920314736363723472E-13, -8.817456953860941711E-15, 55.00000000000000000 ) ) ;
#241 = CC_DESIGN_PERSON_AND_ORGANIZATION_ASSIGNMENT ( #116, #136, ( #174 ) ) ;
#242 = DATE_AND_TIME ( #37, #235 ) ;
#243 = ADVANCED_FACE ( 'NONE', ( #131, #175 ), #61, .T. ) ;
#244 = CLOSED_SHELL ( 'NONE', ( #141, #243, #64, #86, #74, #207 ) ) ;
#245 = DIRECTION ( 'NONE',  ( 1.000000000000000000, 0.0000000000000000000, -3.491481338843133355E-15 ) ) ;
#246 = ORIENTED_EDGE ( 'NONE', *, *, #17, .T. ) ;
#247 = APPROVAL_ROLE ( '' ) ;
#248 = AXIS2_PLACEMENT_3D ( 'NONE', #240, #27, #231 ) ;
#249 = APPLICATION_PROTOCOL_DEFINITION ( 'international standard', 'config_control_design', 1994, #47 ) ;
#250 = DIRECTION ( 'NONE',  ( 3.491481338843133355E-15, 5.665835793645583166E-16, 1.000000000000000000 ) ) ;
#251 = CARTESIAN_POINT ( 'NONE',  ( 1.000000000000000222, 0.0000000000000000000, -3.491481338843134144E-15 ) ) ;
#252 = DIRECTION ( 'NONE',  ( 1.000000000000000000, 0.0000000000000000000, -3.491481338843133355E-15 ) ) ;
#253 = VERTEX_POINT ( 'NONE', #2 ) ;
#254 = FACE_OUTER_BOUND ( 'NONE', #58, .T. ) ;
#255 = CIRCLE ( 'NONE', #199, 2.068148347421859601 ) ;
#256 = PERSON_AND_ORGANIZATION ( #59, #84 ) ;
#257 = SECURITY_CLASSIFICATION ( '', '', #177 ) ;
#258 = EDGE_CURVE ( 'NONE', #85, #85, #183, .T. ) ;
#259 = CARTESIAN_POINT ( 'NONE',  ( 2.897929511239800685E-14, 0.0000000000000000000, 8.300000000000000711 ) ) ;
#260 = CC_DESIGN_APPROVAL ( #60, ( #191 ) ) ;
#261 = PRODUCT_RELATED_PRODUCT_CATEGORY ( 'detail', '', ( #174 ) ) ;
#262 = EDGE_LOOP ( 'NONE', ( #194 ) ) ;
#263 = PERSON_AND_ORGANIZATION_ROLE ( 'creator' ) ;
ENDSEC;
END-ISO-10303-21;
