ISO-10303-21;
HEADER;
FILE_DESCRIPTION (( 'STEP AP203' ),
    '1' );
FILE_NAME ('392823.step',
    '2021-12-09T12:42:22',
    ( '' ),
    ( '' ),
    'SwSTEP 2.0',
    'SolidWorks 2019',
    '' );
FILE_SCHEMA (( 'CONFIG_CONTROL_DESIGN' ));
ENDSEC;

DATA;
#1 = DIRECTION ( 'NONE',  ( -1.010817540957225187E-30, -1.000000000000000000, -2.895096501624577769E-16 ) ) ;
#2 = EDGE_CURVE ( 'NONE', #241, #241, #184, .T. ) ;
#3 = PLANE ( 'NONE',  #260 ) ;
#4 = CALENDAR_DATE ( 2021, 9, 12 ) ;
#5 = PERSON ( 'UNSPECIFIED', 'UNSPECIFIED', 'UNSPECIFIED', ('UNSPECIFIED'), ('UNSPECIFIED'), ('UNSPECIFIED') ) ;
#6 = PERSON_AND_ORGANIZATION ( #5, #84 ) ;
#7 = ORIENTED_EDGE ( 'NONE', *, *, #201, .T. ) ;
#8 = CC_DESIGN_PERSON_AND_ORGANIZATION_ASSIGNMENT ( #69, #106, ( #159 ) ) ;
#9 = ORIENTED_EDGE ( 'NONE', *, *, #42, .F. ) ;
#10 = CARTESIAN_POINT ( 'NONE',  ( -3.785471652766322713E-31, 0.0000000000000000000, -1.084202172485504434E-16 ) ) ;
#11 = AXIS2_PLACEMENT_3D ( 'NONE', #258, #119, #41 ) ;
#12 = ADVANCED_BREP_SHAPE_REPRESENTATION ( '392823', ( #109, #107, #245 ), #171 ) ;
#13 = LOCAL_TIME ( 13, 42, 22.00000000000000000, #249 ) ;
#14 = ORIENTED_EDGE ( 'NONE', *, *, #31, .F. ) ;
#15 = EDGE_LOOP ( 'NONE', ( #186 ) ) ;
#16 = EDGE_CURVE ( 'NONE', #195, #195, #145, .T. ) ;
#17 = CARTESIAN_POINT ( 'NONE',  ( 1.920314736363723472E-13, -8.817456953860941711E-15, 55.00000000000000000 ) ) ;
#18 = APPROVAL_PERSON_ORGANIZATION ( #46, #150, #225 ) ;
#19 = CARTESIAN_POINT ( 'NONE',  ( 2.897929511239800685E-14, 0.0000000000000000000, 8.300000000000000711 ) ) ;
#20 = DIRECTION ( 'NONE',  ( 3.491481338843133355E-15, -0.0000000000000000000, 1.000000000000000000 ) ) ;
#21 = CARTESIAN_POINT ( 'NONE',  ( 1.745740669421566678E-15, 0.0000000000000000000, 0.5000000000000000000 ) ) ;
#22 = ADVANCED_FACE ( 'NONE', ( #112, #214 ), #33, .T. ) ;
#23 = APPLICATION_PROTOCOL_DEFINITION ( 'international standard', 'config_control_design', 1994, #213 ) ;
#24 = VERTEX_POINT ( 'NONE', #83 ) ;
#25 = PERSON_AND_ORGANIZATION ( #5, #84 ) ;
#26 = AXIS2_PLACEMENT_3D ( 'NONE', #54, #30, #88 ) ;
#27 = CARTESIAN_POINT ( 'NONE',  ( 1.920314736363723472E-13, -2.400000000000013234, 55.00000000000000000 ) ) ;
#28 = CALENDAR_DATE ( 2021, 9, 12 ) ;
#29 = CC_DESIGN_APPROVAL ( #101, ( #96 ) ) ;
#30 = DIRECTION ( 'NONE',  ( 3.491481338843133355E-15, -2.895096501624577769E-16, 1.000000000000000000 ) ) ;
#31 = EDGE_CURVE ( 'NONE', #97, #97, #134, .T. ) ;
#32 = ORIENTED_EDGE ( 'NONE', *, *, #189, .F. ) ;
#33 = CYLINDRICAL_SURFACE ( 'NONE', #156, 2.999999999999996447 ) ;
#34 = EDGE_LOOP ( 'NONE', ( #147 ) ) ;
#35 = ADVANCED_FACE ( 'NONE', ( #55 ), #129, .F. ) ;
#36 = AXIS2_PLACEMENT_3D ( 'NONE', #116, #188, #94 ) ;
#37 = FACE_OUTER_BOUND ( 'NONE', #169, .T. ) ;
#38 = FACE_OUTER_BOUND ( 'NONE', #56, .T. ) ;
#39 = FACE_OUTER_BOUND ( 'NONE', #254, .T. ) ;
#40 = AXIS2_PLACEMENT_3D ( 'NONE', #155, #79, #178 ) ;
#41 = DIRECTION ( 'NONE',  ( 0.0000000000000000000, 1.000000000000000000, 0.0000000000000000000 ) ) ;
#42 = EDGE_CURVE ( 'NONE', #135, #135, #192, .T. ) ;
#43 = VERTEX_POINT ( 'NONE', #122 ) ;
#44 = COORDINATED_UNIVERSAL_TIME_OFFSET ( 1, 0, .AHEAD. ) ;
#45 = CIRCLE ( 'NONE', #125, 2.068148347421859601 ) ;
#46 = PERSON_AND_ORGANIZATION ( #5, #84 ) ;
#47 = APPROVAL_DATE_TIME ( #66, #75 ) ;
#48 = COORDINATED_UNIVERSAL_TIME_OFFSET ( 1, 0, .AHEAD. ) ;
#49 = ADVANCED_FACE ( 'NONE', ( #257 ), #3, .F. ) ;
#50 = EDGE_LOOP ( 'NONE', ( #239 ) ) ;
#51 = CC_DESIGN_DATE_AND_TIME_ASSIGNMENT ( #140, #229, ( #219 ) ) ;
#52 = COORDINATED_UNIVERSAL_TIME_OFFSET ( 1, 0, .AHEAD. ) ;
#53 = EDGE_LOOP ( 'NONE', ( #170 ) ) ;
#54 = CARTESIAN_POINT ( 'NONE',  ( 1.899365848330664293E-13, -8.643751163763465931E-15, 54.39999999999999858 ) ) ;
#55 = FACE_OUTER_BOUND ( 'NONE', #212, .T. ) ;
#56 = EDGE_LOOP ( 'NONE', ( #87 ) ) ;
#57 = AXIS2_PLACEMENT_3D ( 'NONE', #242, #194, #221 ) ;
#58 = DIRECTION ( 'NONE',  ( -3.491481338843133355E-15, -5.665835793645583166E-16, -1.000000000000000000 ) ) ;
#59 = DIRECTION ( 'NONE',  ( 3.491481338843133355E-15, -0.0000000000000000000, 1.000000000000000000 ) ) ;
#60 = DIRECTION ( 'NONE',  ( 1.000000000000000000, 0.0000000000000000000, -3.355123878109231823E-15 ) ) ;
#61 = AXIS2_PLACEMENT_3D ( 'NONE', #99, #118, #175 ) ;
#62 = CARTESIAN_POINT ( 'NONE',  ( 1.899365848330664293E-13, -3.000000000000012879, 54.39999999999999858 ) ) ;
#63 = FACE_BOUND ( 'NONE', #71, .T. ) ;
#64 = COORDINATED_UNIVERSAL_TIME_OFFSET ( 1, 0, .AHEAD. ) ;
#65 = LOCAL_TIME ( 13, 42, 22.00000000000000000, #64 ) ;
#66 = DATE_AND_TIME ( #185, #13 ) ;
#67 = SECURITY_CLASSIFICATION_LEVEL ( 'unclassified' ) ;
#68 = PRODUCT_DEFINITION_FORMATION_WITH_SPECIFIED_SOURCE ( 'ANY', '', #159, .NOT_KNOWN. ) ;
#69 = PERSON_AND_ORGANIZATION ( #5, #84 ) ;
#70 = TOROIDAL_SURFACE ( 'NONE', #73, 1.500000000000000000, 0.5000000000000000000 ) ;
#71 = EDGE_LOOP ( 'NONE', ( #72 ) ) ;
#72 = ORIENTED_EDGE ( 'NONE', *, *, #208, .F. ) ;
#73 = AXIS2_PLACEMENT_3D ( 'NONE', #21, #95, #161 ) ;
#74 = CARTESIAN_POINT ( 'NONE',  ( 2.897929511239800685E-14, 0.0000000000000000000, 8.300000000000000711 ) ) ;
#75 = APPROVAL ( #181, 'UNSPECIFIED' ) ;
#76 = CARTESIAN_POINT ( 'NONE',  ( 3.078661884462326481E-14, 0.0000000000000000000, 8.817638090205027979 ) ) ;
#77 = FACE_OUTER_BOUND ( 'NONE', #50, .T. ) ;
#78 = CARTESIAN_POINT ( 'NONE',  ( 3.000000000000039524, 0.0000000000000000000, 12.29535580274374063 ) ) ;
#79 = DIRECTION ( 'NONE',  ( 3.491481338843133355E-15, -0.0000000000000000000, 1.000000000000000000 ) ) ;
#80 = CIRCLE ( 'NONE', #168, 2.000000000000000000 ) ;
#81 = ADVANCED_FACE ( 'NONE', ( #133, #77 ), #199, .T. ) ;
#82 = DIRECTION ( 'NONE',  ( 3.491481338843133355E-15, -0.0000000000000000000, 1.000000000000000000 ) ) ;
#83 = CARTESIAN_POINT ( 'NONE',  ( 2.000000000000001776, 0.0000000000000000000, 0.4999999999999930611 ) ) ;
#84 = ORGANIZATION ( 'UNSPECIFIED', 'UNSPECIFIED', '' ) ;
#85 = CALENDAR_DATE ( 2021, 9, 12 ) ;
#86 = DIRECTION ( 'NONE',  ( 0.0000000000000000000, 0.0000000000000000000, 1.000000000000000000 ) ) ;
#87 = ORIENTED_EDGE ( 'NONE', *, *, #31, .T. ) ;
#88 = DIRECTION ( 'NONE',  ( 0.0000000000000000000, -1.000000000000000000, 0.0000000000000000000 ) ) ;
#89 = EDGE_LOOP ( 'NONE', ( #190 ) ) ;
#90 = EDGE_LOOP ( 'NONE', ( #7 ) ) ;
#91 = APPROVAL_PERSON_ORGANIZATION ( #146, #101, #113 ) ;
#92 = ORIENTED_EDGE ( 'NONE', *, *, #2, .T. ) ;
#93 = AXIS2_PLACEMENT_3D ( 'NONE', #19, #121, #136 ) ;
#94 = DIRECTION ( 'NONE',  ( 1.978215994246302745E-30, -1.000000000000000000, 5.665835793645583166E-16 ) ) ;
#95 = DIRECTION ( 'NONE',  ( 3.491481338843133355E-15, -0.0000000000000000000, 1.000000000000000000 ) ) ;
#96 = SECURITY_CLASSIFICATION ( '', '', #67 ) ;
#97 = VERTEX_POINT ( 'NONE', #174 ) ;
#98 = ADVANCED_FACE ( 'NONE', ( #38, #37 ), #131, .F. ) ;
#99 = CARTESIAN_POINT ( 'NONE',  ( 1.920314736363723472E-13, -8.817456953860941711E-15, 55.00000000000000000 ) ) ;
#100 = PLANE ( 'NONE',  #139 ) ;
#101 = APPROVAL ( #232, 'UNSPECIFIED' ) ;
#102 = LOCAL_TIME ( 13, 42, 22.00000000000000000, #44 ) ;
#103 = CARTESIAN_POINT ( 'NONE',  ( 2.897929511239801316E-14, 4.702643708725835369E-15, 8.300000000000002487 ) ) ;
#104 = DESIGN_CONTEXT ( 'detailed design', #224, 'design' ) ;
#105 = AXIS2_PLACEMENT_3D ( 'NONE', #114, #217, #211 ) ;
#106 = PERSON_AND_ORGANIZATION_ROLE ( 'design_owner' ) ;
#107 = MANIFOLD_SOLID_BREP ( 'Corps-Déplacer/Copier1[2]', #151 ) ;
#108 = PERSON_AND_ORGANIZATION_ROLE ( 'creator' ) ;
#109 = MANIFOLD_SOLID_BREP ( 'Corps-Déplacer/Copier1[1]', #231 ) ;
#110 = DATE_TIME_ROLE ( 'classification_date' ) ;
#111 = EDGE_CURVE ( 'NONE', #43, #43, #45, .T. ) ;
#112 = FACE_OUTER_BOUND ( 'NONE', #15, .T. ) ;
#113 = APPROVAL_ROLE ( '' ) ;
#114 = CARTESIAN_POINT ( 'NONE',  ( 4.292900533971643827E-14, 0.0000000000000000000, 12.29535580274375128 ) ) ;
#115 = CARTESIAN_POINT ( 'NONE',  ( 1.920314736363723472E-13, -8.817456953860941711E-15, 55.00000000000000000 ) ) ;
#116 = CARTESIAN_POINT ( 'NONE',  ( -2.967323991369449913E-30, 2.999999999999995559, -8.498753690468361930E-16 ) ) ;
#117 = FACE_OUTER_BOUND ( 'NONE', #149, .T. ) ;
#118 = DIRECTION ( 'NONE',  ( -3.491481338843133355E-15, 2.895096501624577769E-16, -1.000000000000000000 ) ) ;
#119 = DIRECTION ( 'NONE',  ( -3.491481338843133355E-15, 2.895096501624577769E-16, -1.000000000000000000 ) ) ;
#120 = CONICAL_SURFACE ( 'NONE', #40, 6.499999999999997335, 0.2617993877991427465 ) ;
#121 = DIRECTION ( 'NONE',  ( 3.491481338843133355E-15, -0.0000000000000000000, 1.000000000000000000 ) ) ;
#122 = CARTESIAN_POINT ( 'NONE',  ( 2.068148347421890243, 0.0000000000000000000, 8.817638090205020873 ) ) ;
#123 = CC_DESIGN_PERSON_AND_ORGANIZATION_ASSIGNMENT ( #142, #230, ( #96 ) ) ;
#124 =( NAMED_UNIT ( * ) SI_UNIT ( $, .STERADIAN. ) SOLID_ANGLE_UNIT ( ) );
#125 = AXIS2_PLACEMENT_3D ( 'NONE', #76, #82, #60 ) ;
#126 = PERSON_AND_ORGANIZATION ( #5, #84 ) ;
#127 = CALENDAR_DATE ( 2021, 9, 12 ) ;
#128 = ORIENTED_EDGE ( 'NONE', *, *, #111, .F. ) ;
#129 = PLANE ( 'NONE',  #36 ) ;
#130 = CC_DESIGN_APPROVAL ( #150, ( #219 ) ) ;
#131 = TOROIDAL_SURFACE ( 'NONE', #93, 4.000000000000000000, 2.000000000000000000 ) ;
#132 = DIRECTION ( 'NONE',  ( 1.000000000000000000, 0.0000000000000000000, -3.469446951953614189E-15 ) ) ;
#133 = FACE_OUTER_BOUND ( 'NONE', #53, .T. ) ;
#134 = CIRCLE ( 'NONE', #216, 2.000000000000000000 ) ;
#135 = VERTEX_POINT ( 'NONE', #223 ) ;
#136 = DIRECTION ( 'NONE',  ( 1.000000000000000000, 0.0000000000000000000, -3.491481338843133355E-15 ) ) ;
#137 = LOCAL_TIME ( 13, 42, 22.00000000000000000, #48 ) ;
#138 = APPROVAL_STATUS ( 'not_yet_approved' ) ;
#139 = AXIS2_PLACEMENT_3D ( 'NONE', #103, #160, #1 ) ;
#140 = DATE_AND_TIME ( #85, #65 ) ;
#141 = DIRECTION ( 'NONE',  ( 1.000000000000000000, 0.0000000000000000000, 0.0000000000000000000 ) ) ;
#142 = PERSON_AND_ORGANIZATION ( #5, #84 ) ;
#143 = APPROVAL_PERSON_ORGANIZATION ( #126, #75, #205 ) ;
#144 = CC_DESIGN_DATE_AND_TIME_ASSIGNMENT ( #207, #110, ( #96 ) ) ;
#145 = CIRCLE ( 'NONE', #26, 3.000000000000004441 ) ;
#146 = PERSON_AND_ORGANIZATION ( #5, #84 ) ;
#147 = ORIENTED_EDGE ( 'NONE', *, *, #42, .T. ) ;
#148 = SHAPE_DEFINITION_REPRESENTATION ( #262, #12 ) ;
#149 = EDGE_LOOP ( 'NONE', ( #32 ) ) ;
#150 = APPROVAL ( #138, 'UNSPECIFIED' ) ;
#151 = CLOSED_SHELL ( 'NONE', ( #35, #176, #81, #49 ) ) ;
#152 = ORIENTED_EDGE ( 'NONE', *, *, #16, .T. ) ;
#153 = DIRECTION ( 'NONE',  ( 3.491481338843133355E-15, -0.0000000000000000000, 1.000000000000000000 ) ) ;
#154 = DIRECTION ( 'NONE',  ( 1.000000000000000000, 0.0000000000000000000, -3.491481338843133355E-15 ) ) ;
#155 = CARTESIAN_POINT ( 'NONE',  ( 8.853535546556179188E-14, 0.0000000000000000000, 25.35753362923517074 ) ) ;
#156 = AXIS2_PLACEMENT_3D ( 'NONE', #115, #256, #191 ) ;
#157 = CARTESIAN_POINT ( 'NONE',  ( 1.745740669421566678E-15, 0.0000000000000000000, 0.5000000000000000000 ) ) ;
#158 = DIRECTION ( 'NONE',  ( -1.978215994246302745E-30, 1.000000000000000000, -5.665835793645583166E-16 ) ) ;
#159 = PRODUCT ( '392823', '392823', '', ( #166 ) ) ;
#160 = DIRECTION ( 'NONE',  ( 3.491481338843133355E-15, -2.895096501624577769E-16, 1.000000000000000000 ) ) ;
#161 = DIRECTION ( 'NONE',  ( 1.000000000000000000, 0.0000000000000000000, -3.491481338843133355E-15 ) ) ;
#162 = PRODUCT_RELATED_PRODUCT_CATEGORY ( 'detail', '', ( #159 ) ) ;
#163 = VERTEX_POINT ( 'NONE', #183 ) ;
#164 = APPROVAL_DATE_TIME ( #202, #150 ) ;
#165 = CC_DESIGN_PERSON_AND_ORGANIZATION_ASSIGNMENT ( #227, #247, ( #219 ) ) ;
#166 = MECHANICAL_CONTEXT ( 'NONE', #213, 'mechanical' ) ;
#167 = EDGE_LOOP ( 'NONE', ( #235 ) ) ;
#168 = AXIS2_PLACEMENT_3D ( 'NONE', #157, #59, #132 ) ;
#169 = EDGE_LOOP ( 'NONE', ( #128 ) ) ;
#170 = ORIENTED_EDGE ( 'NONE', *, *, #189, .T. ) ;
#171 =( GEOMETRIC_REPRESENTATION_CONTEXT ( 3 ) GLOBAL_UNCERTAINTY_ASSIGNED_CONTEXT ( ( #200 ) ) GLOBAL_UNIT_ASSIGNED_CONTEXT ( ( #204, #248, #124 ) ) REPRESENTATION_CONTEXT ( 'NONE', 'WORKASPACE' ) );
#172 = DIRECTION ( 'NONE',  ( 3.491481338843133355E-15, -0.0000000000000000000, 1.000000000000000000 ) ) ;
#173 = FACE_OUTER_BOUND ( 'NONE', #237, .T. ) ;
#174 = CARTESIAN_POINT ( 'NONE',  ( 2.000000000000029310, 0.0000000000000000000, 8.299999999999993605 ) ) ;
#175 = DIRECTION ( 'NONE',  ( 1.010817540957225187E-30, 1.000000000000000000, 2.895096501624577769E-16 ) ) ;
#176 = ADVANCED_FACE ( 'NONE', ( #198, #117 ), #70, .T. ) ;
#177 = CARTESIAN_POINT ( 'NONE',  ( 0.0000000000000000000, 0.0000000000000000000, 0.0000000000000000000 ) ) ;
#178 = DIRECTION ( 'NONE',  ( 1.000000000000000000, 0.0000000000000000000, -3.736327486719278336E-15 ) ) ;
#179 = AXIS2_PLACEMENT_3D ( 'NONE', #10, #172, #154 ) ;
#180 = CC_DESIGN_PERSON_AND_ORGANIZATION_ASSIGNMENT ( #6, #250, ( #68 ) ) ;
#181 = APPROVAL_STATUS ( 'not_yet_approved' ) ;
#182 = LOCAL_TIME ( 13, 42, 22.00000000000000000, #52 ) ;
#183 = CARTESIAN_POINT ( 'NONE',  ( 2.000000000000029310, 0.0000000000000000000, 8.299999999999993605 ) ) ;
#184 = CIRCLE ( 'NONE', #105, 2.999999999999996447 ) ;
#185 = CALENDAR_DATE ( 2021, 9, 12 ) ;
#186 = ORIENTED_EDGE ( 'NONE', *, *, #16, .F. ) ;
#187 = VERTEX_POINT ( 'NONE', #27 ) ;
#188 = DIRECTION ( 'NONE',  ( 3.491481338843133355E-15, 5.665835793645583166E-16, 1.000000000000000000 ) ) ;
#189 = EDGE_CURVE ( 'NONE', #24, #24, #80, .T. ) ;
#190 = ORIENTED_EDGE ( 'NONE', *, *, #111, .T. ) ;
#191 = DIRECTION ( 'NONE',  ( 0.0000000000000000000, -1.000000000000000000, 0.0000000000000000000 ) ) ;
#192 = CIRCLE ( 'NONE', #179, 1.500000000000000000 ) ;
#193 = EDGE_LOOP ( 'NONE', ( #92 ) ) ;
#194 = DIRECTION ( 'NONE',  ( 3.491481338843133355E-15, -0.0000000000000000000, 1.000000000000000000 ) ) ;
#195 = VERTEX_POINT ( 'NONE', #62 ) ;
#196 = PLANE ( 'NONE',  #61 ) ;
#197 = CC_DESIGN_PERSON_AND_ORGANIZATION_ASSIGNMENT ( #25, #108, ( #68 ) ) ;
#198 = FACE_OUTER_BOUND ( 'NONE', #34, .T. ) ;
#199 = CYLINDRICAL_SURFACE ( 'NONE', #236, 2.000000000000000000 ) ;
#200 = UNCERTAINTY_MEASURE_WITH_UNIT (LENGTH_MEASURE( 1.000000000000000082E-05 ), #204, 'distance_accuracy_value', 'NONE');
#201 = EDGE_CURVE ( 'NONE', #163, #163, #252, .T. ) ;
#202 = DATE_AND_TIME ( #4, #102 ) ;
#203 = AXIS2_PLACEMENT_3D ( 'NONE', #17, #246, #218 ) ;
#204 =( LENGTH_UNIT ( ) NAMED_UNIT ( * ) SI_UNIT ( .MILLI., .METRE. ) );
#205 = APPROVAL_ROLE ( '' ) ;
#206 = CARTESIAN_POINT ( 'NONE',  ( 0.0000000000000000000, 0.0000000000000000000, 0.0000000000000000000 ) ) ;
#207 = DATE_AND_TIME ( #127, #137 ) ;
#208 = EDGE_CURVE ( 'NONE', #187, #187, #222, .T. ) ;
#209 = CC_DESIGN_APPROVAL ( #75, ( #68 ) ) ;
#210 = APPROVAL_DATE_TIME ( #234, #101 ) ;
#211 = DIRECTION ( 'NONE',  ( 1.000000000000000000, 0.0000000000000000000, -3.469446951953618133E-15 ) ) ;
#212 = EDGE_LOOP ( 'NONE', ( #9 ) ) ;
#213 = APPLICATION_CONTEXT ( 'configuration controlled 3d designs of mechanical parts and assemblies' ) ;
#214 = FACE_OUTER_BOUND ( 'NONE', #167, .T. ) ;
#215 = ADVANCED_FACE ( 'NONE', ( #63, #173 ), #240, .T. ) ;
#216 = AXIS2_PLACEMENT_3D ( 'NONE', #74, #153, #238 ) ;
#217 = DIRECTION ( 'NONE',  ( -3.491481338843133355E-15, 0.0000000000000000000, -1.000000000000000000 ) ) ;
#218 = DIRECTION ( 'NONE',  ( 0.0000000000000000000, -1.000000000000000000, 0.0000000000000000000 ) ) ;
#219 = PRODUCT_DEFINITION ( 'UNKNOWN', '', #68, #104 ) ;
#220 = CARTESIAN_POINT ( 'NONE',  ( 2.897929511239801316E-14, 4.702643708725835369E-15, 8.300000000000002487 ) ) ;
#221 = DIRECTION ( 'NONE',  ( 1.000000000000000000, 0.0000000000000000000, -3.469446951953614189E-15 ) ) ;
#222 = CIRCLE ( 'NONE', #203, 2.400000000000004352 ) ;
#223 = CARTESIAN_POINT ( 'NONE',  ( 1.500000000000000000, 0.0000000000000000000, -5.345642225513250476E-15 ) ) ;
#224 = APPLICATION_CONTEXT ( 'configuration controlled 3d designs of mechanical parts and assemblies' ) ;
#225 = APPROVAL_ROLE ( '' ) ;
#226 = CC_DESIGN_SECURITY_CLASSIFICATION ( #96, ( #68 ) ) ;
#227 = PERSON_AND_ORGANIZATION ( #5, #84 ) ;
#228 = APPLICATION_PROTOCOL_DEFINITION ( 'international standard', 'config_control_design', 1994, #224 ) ;
#229 = DATE_TIME_ROLE ( 'creation_date' ) ;
#230 = PERSON_AND_ORGANIZATION_ROLE ( 'classification_officer' ) ;
#231 = CLOSED_SHELL ( 'NONE', ( #22, #215, #251, #259, #98, #255 ) ) ;
#232 = APPROVAL_STATUS ( 'not_yet_approved' ) ;
#233 = EDGE_LOOP ( 'NONE', ( #14 ) ) ;
#234 = DATE_AND_TIME ( #28, #182 ) ;
#235 = ORIENTED_EDGE ( 'NONE', *, *, #2, .F. ) ;
#236 = AXIS2_PLACEMENT_3D ( 'NONE', #177, #20, #243 ) ;
#237 = EDGE_LOOP ( 'NONE', ( #152 ) ) ;
#238 = DIRECTION ( 'NONE',  ( 1.000000000000000000, 0.0000000000000000000, -3.469446951953614189E-15 ) ) ;
#239 = ORIENTED_EDGE ( 'NONE', *, *, #201, .F. ) ;
#240 = CONICAL_SURFACE ( 'NONE', #11, 3.000000000000004441, 0.7853981633974453924 ) ;
#241 = VERTEX_POINT ( 'NONE', #78 ) ;
#242 = CARTESIAN_POINT ( 'NONE',  ( 2.897929511239800685E-14, 0.0000000000000000000, 8.300000000000000711 ) ) ;
#243 = DIRECTION ( 'NONE',  ( 1.000000000000000000, 0.0000000000000000000, -3.491481338843133355E-15 ) ) ;
#244 = FACE_OUTER_BOUND ( 'NONE', #193, .T. ) ;
#245 = AXIS2_PLACEMENT_3D ( 'NONE', #206, #86, #141 ) ;
#246 = DIRECTION ( 'NONE',  ( 3.491481338843133355E-15, -2.895096501624577769E-16, 1.000000000000000000 ) ) ;
#247 = PERSON_AND_ORGANIZATION_ROLE ( 'creator' ) ;
#248 =( NAMED_UNIT ( * ) PLANE_ANGLE_UNIT ( ) SI_UNIT ( $, .RADIAN. ) );
#249 = COORDINATED_UNIVERSAL_TIME_OFFSET ( 1, 0, .AHEAD. ) ;
#250 = PERSON_AND_ORGANIZATION_ROLE ( 'design_supplier' ) ;
#251 = ADVANCED_FACE ( 'NONE', ( #39 ), #196, .F. ) ;
#252 = CIRCLE ( 'NONE', #57, 2.000000000000000000 ) ;
#253 = ORIENTED_EDGE ( 'NONE', *, *, #208, .T. ) ;
#254 = EDGE_LOOP ( 'NONE', ( #253 ) ) ;
#255 = ADVANCED_FACE ( 'NONE', ( #263 ), #100, .F. ) ;
#256 = DIRECTION ( 'NONE',  ( 3.491481338843133355E-15, -2.895096501624577769E-16, 1.000000000000000000 ) ) ;
#257 = FACE_OUTER_BOUND ( 'NONE', #90, .T. ) ;
#258 = CARTESIAN_POINT ( 'NONE',  ( 1.899365848330664293E-13, -8.643751163763465931E-15, 54.39999999999999858 ) ) ;
#259 = ADVANCED_FACE ( 'NONE', ( #261, #244 ), #120, .T. ) ;
#260 = AXIS2_PLACEMENT_3D ( 'NONE', #220, #58, #158 ) ;
#261 = FACE_BOUND ( 'NONE', #89, .T. ) ;
#262 = PRODUCT_DEFINITION_SHAPE ( 'NONE', 'NONE',  #219 ) ;
#263 = FACE_OUTER_BOUND ( 'NONE', #233, .T. ) ;
ENDSEC;
END-ISO-10303-21;
