ISO-10303-21;
HEADER;
FILE_DESCRIPTION (( 'STEP AP203' ),
    '1' );
FILE_NAME ('392822.step',
    '2021-12-09T12:42:22',
    ( '' ),
    ( '' ),
    'SwSTEP 2.0',
    'SolidWorks 2019',
    '' );
FILE_SCHEMA (( 'CONFIG_CONTROL_DESIGN' ));
ENDSEC;

DATA;
#1 = EDGE_LOOP ( 'NONE', ( #60 ) ) ;
#2 = PERSON_AND_ORGANIZATION ( #205, #182 ) ;
#3 = EDGE_LOOP ( 'NONE', ( #256 ) ) ;
#4 = CIRCLE ( 'NONE', #221, 3.000000000000004441 ) ;
#5 = DIRECTION ( 'NONE',  ( 3.491481338843133355E-15, -0.0000000000000000000, 1.000000000000000000 ) ) ;
#6 = APPROVAL_DATE_TIME ( #210, #20 ) ;
#7 = ADVANCED_FACE ( 'NONE', ( #135, #120 ), #158, .T. ) ;
#8 = CALENDAR_DATE ( 2021, 9, 12 ) ;
#9 = APPROVAL_STATUS ( 'not_yet_approved' ) ;
#10 = DIRECTION ( 'NONE',  ( 3.491481338843133355E-15, -2.895096501624577769E-16, 1.000000000000000000 ) ) ;
#11 = APPROVAL_PERSON_ORGANIZATION ( #159, #178, #116 ) ;
#12 = DIRECTION ( 'NONE',  ( -3.491481338843133355E-15, 0.0000000000000000000, -1.000000000000000000 ) ) ;
#13 = PERSON_AND_ORGANIZATION ( #205, #182 ) ;
#14 = EDGE_LOOP ( 'NONE', ( #96 ) ) ;
#15 = DIRECTION ( 'NONE',  ( 3.491481338843133355E-15, -0.0000000000000000000, 1.000000000000000000 ) ) ;
#16 = APPLICATION_PROTOCOL_DEFINITION ( 'international standard', 'config_control_design', 1994, #154 ) ;
#17 = PLANE ( 'NONE',  #191 ) ;
#18 = AXIS2_PLACEMENT_3D ( 'NONE', #216, #148, #166 ) ;
#19 = AXIS2_PLACEMENT_3D ( 'NONE', #149, #122, #175 ) ;
#20 = APPROVAL ( #249, 'UNSPECIFIED' ) ;
#21 = DIRECTION ( 'NONE',  ( -3.491481338843133355E-15, -5.665835793645583166E-16, -1.000000000000000000 ) ) ;
#22 = AXIS2_PLACEMENT_3D ( 'NONE', #91, #5, #131 ) ;
#23 = ORIENTED_EDGE ( 'NONE', *, *, #39, .F. ) ;
#24 = VERTEX_POINT ( 'NONE', #211 ) ;
#25 = CYLINDRICAL_SURFACE ( 'NONE', #207, 2.999999999999996447 ) ;
#26 = SECURITY_CLASSIFICATION_LEVEL ( 'unclassified' ) ;
#27 = VERTEX_POINT ( 'NONE', #106 ) ;
#28 = MANIFOLD_SOLID_BREP ( 'Corps-Déplacer/Copier1[1]', #209 ) ;
#29 = DATE_TIME_ROLE ( 'classification_date' ) ;
#30 = EDGE_LOOP ( 'NONE', ( #23 ) ) ;
#31 = MANIFOLD_SOLID_BREP ( 'Corps-Déplacer/Copier1[2]', #259 ) ;
#32 = FACE_OUTER_BOUND ( 'NONE', #30, .T. ) ;
#33 = PLANE ( 'NONE',  #79 ) ;
#34 = CIRCLE ( 'NONE', #107, 2.000000000000000000 ) ;
#35 = DIRECTION ( 'NONE',  ( 0.0000000000000000000, -1.000000000000000000, 0.0000000000000000000 ) ) ;
#36 = DIRECTION ( 'NONE',  ( 0.0000000000000000000, -1.000000000000000000, 0.0000000000000000000 ) ) ;
#37 = PRODUCT_DEFINITION ( 'UNKNOWN', '', #217, #124 ) ;
#38 = CC_DESIGN_APPROVAL ( #178, ( #37 ) ) ;
#39 = EDGE_CURVE ( 'NONE', #190, #190, #243, .T. ) ;
#40 = DIRECTION ( 'NONE',  ( -1.978215994246302745E-30, 1.000000000000000000, -5.665835793645583166E-16 ) ) ;
#41 = DIRECTION ( 'NONE',  ( 0.0000000000000000000, 1.000000000000000000, 0.0000000000000000000 ) ) ;
#42 = CC_DESIGN_DATE_AND_TIME_ASSIGNMENT ( #110, #29, ( #227 ) ) ;
#43 =( GEOMETRIC_REPRESENTATION_CONTEXT ( 3 ) GLOBAL_UNCERTAINTY_ASSIGNED_CONTEXT ( ( #202 ) ) GLOBAL_UNIT_ASSIGNED_CONTEXT ( ( #143, #234, #253 ) ) REPRESENTATION_CONTEXT ( 'NONE', 'WORKASPACE' ) );
#44 = EDGE_LOOP ( 'NONE', ( #170 ) ) ;
#45 = FACE_OUTER_BOUND ( 'NONE', #226, .T. ) ;
#46 = DIRECTION ( 'NONE',  ( 3.491481338843133355E-15, 5.665835793645583166E-16, 1.000000000000000000 ) ) ;
#47 = APPROVAL_ROLE ( '' ) ;
#48 = PERSON_AND_ORGANIZATION_ROLE ( 'design_supplier' ) ;
#49 = AXIS2_PLACEMENT_3D ( 'NONE', #218, #57, #156 ) ;
#50 = ORIENTED_EDGE ( 'NONE', *, *, #240, .T. ) ;
#51 = FACE_OUTER_BOUND ( 'NONE', #144, .T. ) ;
#52 = EDGE_CURVE ( 'NONE', #245, #245, #81, .T. ) ;
#53 = DIRECTION ( 'NONE',  ( 1.000000000000000000, 0.0000000000000000000, -3.491481338843133355E-15 ) ) ;
#54 = CARTESIAN_POINT ( 'NONE',  ( 1.899365848330664293E-13, -8.643751163763465931E-15, 54.39999999999999858 ) ) ;
#55 = AXIS2_PLACEMENT_3D ( 'NONE', #176, #74, #41 ) ;
#56 = EDGE_LOOP ( 'NONE', ( #252 ) ) ;
#57 = DIRECTION ( 'NONE',  ( 3.491481338843133355E-15, -0.0000000000000000000, 1.000000000000000000 ) ) ;
#58 = LOCAL_TIME ( 13, 42, 22.00000000000000000, #212 ) ;
#59 = CC_DESIGN_PERSON_AND_ORGANIZATION_ASSIGNMENT ( #2, #86, ( #227 ) ) ;
#60 = ORIENTED_EDGE ( 'NONE', *, *, #52, .T. ) ;
#61 = ADVANCED_FACE ( 'NONE', ( #261 ), #71, .F. ) ;
#62 = LOCAL_TIME ( 13, 42, 22.00000000000000000, #215 ) ;
#63 = CALENDAR_DATE ( 2021, 9, 12 ) ;
#64 = DIRECTION ( 'NONE',  ( 3.491481338843133355E-15, -0.0000000000000000000, 1.000000000000000000 ) ) ;
#65 = AXIS2_PLACEMENT_3D ( 'NONE', #134, #72, #139 ) ;
#66 = CALENDAR_DATE ( 2021, 9, 12 ) ;
#67 = VERTEX_POINT ( 'NONE', #88 ) ;
#68 = APPROVAL_STATUS ( 'not_yet_approved' ) ;
#69 = ORIENTED_EDGE ( 'NONE', *, *, #127, .F. ) ;
#70 = APPROVAL_ROLE ( '' ) ;
#71 = PLANE ( 'NONE',  #18 ) ;
#72 = DIRECTION ( 'NONE',  ( 3.491481338843133355E-15, -0.0000000000000000000, 1.000000000000000000 ) ) ;
#73 = EDGE_LOOP ( 'NONE', ( #112 ) ) ;
#74 = DIRECTION ( 'NONE',  ( -3.491481338843133355E-15, 2.895096501624577769E-16, -1.000000000000000000 ) ) ;
#75 = APPROVAL ( #9, 'UNSPECIFIED' ) ;
#76 = CARTESIAN_POINT ( 'NONE',  ( 0.0000000000000000000, 0.0000000000000000000, 0.0000000000000000000 ) ) ;
#77 = DIRECTION ( 'NONE',  ( 1.000000000000000000, 0.0000000000000000000, -3.469446951953614189E-15 ) ) ;
#78 = ADVANCED_FACE ( 'NONE', ( #136, #169 ), #196, .T. ) ;
#79 = AXIS2_PLACEMENT_3D ( 'NONE', #117, #237, #223 ) ;
#80 = AXIS2_PLACEMENT_3D ( 'NONE', #151, #171, #36 ) ;
#81 = CIRCLE ( 'NONE', #150, 2.000000000000000000 ) ;
#82 = APPLICATION_PROTOCOL_DEFINITION ( 'international standard', 'config_control_design', 1994, #257 ) ;
#83 = ADVANCED_FACE ( 'NONE', ( #192, #174 ), #137, .F. ) ;
#84 = DIRECTION ( 'NONE',  ( 3.491481338843133355E-15, -2.895096501624577769E-16, 1.000000000000000000 ) ) ;
#85 = LOCAL_TIME ( 13, 42, 22.00000000000000000, #163 ) ;
#86 = PERSON_AND_ORGANIZATION_ROLE ( 'classification_officer' ) ;
#87 = ORIENTED_EDGE ( 'NONE', *, *, #127, .T. ) ;
#88 = CARTESIAN_POINT ( 'NONE',  ( 2.000000000000000888, 0.0000000000000000000, 0.2999999999999931055 ) ) ;
#89 = COORDINATED_UNIVERSAL_TIME_OFFSET ( 1, 0, .AHEAD. ) ;
#90 = ADVANCED_FACE ( 'NONE', ( #102 ), #33, .F. ) ;
#91 = CARTESIAN_POINT ( 'NONE',  ( 3.078661884462326481E-14, 0.0000000000000000000, 8.817638090205027979 ) ) ;
#92 = DIRECTION ( 'NONE',  ( 1.000000000000000000, 0.0000000000000000000, -3.469446951953614189E-15 ) ) ;
#93 = CC_DESIGN_APPROVAL ( #20, ( #217 ) ) ;
#94 = CARTESIAN_POINT ( 'NONE',  ( 1.920314736363723472E-13, -2.400000000000013234, 55.00000000000000000 ) ) ;
#95 = DATE_TIME_ROLE ( 'creation_date' ) ;
#96 = ORIENTED_EDGE ( 'NONE', *, *, #260, .T. ) ;
#97 = PRODUCT_RELATED_PRODUCT_CATEGORY ( 'detail', '', ( #262 ) ) ;
#98 = ORIENTED_EDGE ( 'NONE', *, *, #39, .T. ) ;
#99 = CARTESIAN_POINT ( 'NONE',  ( 2.897929511239801316E-14, 4.702643708725835369E-15, 8.300000000000002487 ) ) ;
#100 = CC_DESIGN_APPROVAL ( #75, ( #227 ) ) ;
#101 = EDGE_CURVE ( 'NONE', #248, #248, #177, .T. ) ;
#102 = FACE_OUTER_BOUND ( 'NONE', #235, .T. ) ;
#103 = CONICAL_SURFACE ( 'NONE', #55, 3.000000000000004441, 0.7853981633974453924 ) ;
#104 = ADVANCED_FACE ( 'NONE', ( #198 ), #17, .F. ) ;
#105 = CARTESIAN_POINT ( 'NONE',  ( -2.967323991369449913E-30, 2.999999999999995559, -8.498753690468361930E-16 ) ) ;
#106 = CARTESIAN_POINT ( 'NONE',  ( 1.700000000000000178, 0.0000000000000000000, -5.935518276033326704E-15 ) ) ;
#107 = AXIS2_PLACEMENT_3D ( 'NONE', #129, #64, #251 ) ;
#108 = EDGE_LOOP ( 'NONE', ( #50 ) ) ;
#109 = FACE_OUTER_BOUND ( 'NONE', #108, .T. ) ;
#110 = DATE_AND_TIME ( #130, #58 ) ;
#111 = ADVANCED_BREP_SHAPE_REPRESENTATION ( '392822', ( #28, #31, #19 ), #43 ) ;
#112 = ORIENTED_EDGE ( 'NONE', *, *, #240, .F. ) ;
#113 = VERTEX_POINT ( 'NONE', #214 ) ;
#114 = PERSON_AND_ORGANIZATION_ROLE ( 'creator' ) ;
#115 = PLANE ( 'NONE',  #244 ) ;
#116 = APPROVAL_ROLE ( '' ) ;
#117 = CARTESIAN_POINT ( 'NONE',  ( 1.920314736363723472E-13, -8.817456953860941711E-15, 55.00000000000000000 ) ) ;
#118 = CC_DESIGN_PERSON_AND_ORGANIZATION_ASSIGNMENT ( #187, #126, ( #217 ) ) ;
#119 = FACE_BOUND ( 'NONE', #44, .T. ) ;
#120 = FACE_OUTER_BOUND ( 'NONE', #230, .T. ) ;
#121 = CARTESIAN_POINT ( 'NONE',  ( 2.897929511239800685E-14, 0.0000000000000000000, 8.300000000000000711 ) ) ;
#122 = DIRECTION ( 'NONE',  ( 0.0000000000000000000, 0.0000000000000000000, 1.000000000000000000 ) ) ;
#123 = PRODUCT_DEFINITION_SHAPE ( 'NONE', 'NONE',  #37 ) ;
#124 = DESIGN_CONTEXT ( 'detailed design', #257, 'design' ) ;
#125 = CARTESIAN_POINT ( 'NONE',  ( 2.068148347421890243, 0.0000000000000000000, 8.817638090205020873 ) ) ;
#126 = PERSON_AND_ORGANIZATION_ROLE ( 'creator' ) ;
#127 = EDGE_CURVE ( 'NONE', #24, #24, #4, .T. ) ;
#128 = AXIS2_PLACEMENT_3D ( 'NONE', #161, #12, #250 ) ;
#129 = CARTESIAN_POINT ( 'NONE',  ( 1.047444401652940204E-15, 0.0000000000000000000, 0.3000000000000000999 ) ) ;
#130 = CALENDAR_DATE ( 2021, 9, 12 ) ;
#131 = DIRECTION ( 'NONE',  ( 1.000000000000000000, 0.0000000000000000000, -3.355123878109231823E-15 ) ) ;
#132 = APPROVAL_DATE_TIME ( #180, #178 ) ;
#133 = LOCAL_TIME ( 13, 42, 22.00000000000000000, #255 ) ;
#134 = CARTESIAN_POINT ( 'NONE',  ( 1.047444401652940204E-15, 0.0000000000000000000, 0.3000000000000000999 ) ) ;
#135 = FACE_BOUND ( 'NONE', #14, .T. ) ;
#136 = FACE_OUTER_BOUND ( 'NONE', #56, .T. ) ;
#137 = TOROIDAL_SURFACE ( 'NONE', #173, 4.000000000000000000, 2.000000000000000000 ) ;
#138 = ADVANCED_FACE ( 'NONE', ( #119, #193 ), #103, .T. ) ;
#139 = DIRECTION ( 'NONE',  ( 1.000000000000000000, 0.0000000000000000000, -3.491481338843133355E-15 ) ) ;
#140 = AXIS2_PLACEMENT_3D ( 'NONE', #184, #147, #206 ) ;
#141 = PERSON_AND_ORGANIZATION ( #205, #182 ) ;
#142 = CIRCLE ( 'NONE', #22, 2.068148347421859601 ) ;
#143 =( LENGTH_UNIT ( ) NAMED_UNIT ( * ) SI_UNIT ( .MILLI., .METRE. ) );
#144 = EDGE_LOOP ( 'NONE', ( #69 ) ) ;
#145 = CARTESIAN_POINT ( 'NONE',  ( 1.920314736363723472E-13, -8.817456953860941711E-15, 55.00000000000000000 ) ) ;
#146 = DATE_AND_TIME ( #66, #85 ) ;
#147 = DIRECTION ( 'NONE',  ( 3.491481338843133355E-15, -0.0000000000000000000, 1.000000000000000000 ) ) ;
#148 = DIRECTION ( 'NONE',  ( 3.491481338843133355E-15, -2.895096501624577769E-16, 1.000000000000000000 ) ) ;
#149 = CARTESIAN_POINT ( 'NONE',  ( 0.0000000000000000000, 0.0000000000000000000, 0.0000000000000000000 ) ) ;
#150 = AXIS2_PLACEMENT_3D ( 'NONE', #188, #195, #77 ) ;
#151 = CARTESIAN_POINT ( 'NONE',  ( 1.920314736363723472E-13, -8.817456953860941711E-15, 55.00000000000000000 ) ) ;
#152 = ORIENTED_EDGE ( 'NONE', *, *, #260, .F. ) ;
#153 = APPROVAL_PERSON_ORGANIZATION ( #168, #75, #70 ) ;
#154 = APPLICATION_CONTEXT ( 'configuration controlled 3d designs of mechanical parts and assemblies' ) ;
#155 = DIRECTION ( 'NONE',  ( 3.491481338843133355E-15, -0.0000000000000000000, 1.000000000000000000 ) ) ;
#156 = DIRECTION ( 'NONE',  ( 1.000000000000000000, 0.0000000000000000000, -3.624795322936613711E-15 ) ) ;
#157 = LOCAL_TIME ( 13, 42, 22.00000000000000000, #89 ) ;
#158 = CONICAL_SURFACE ( 'NONE', #49, 6.699999999999996625, 0.2617993877991427465 ) ;
#159 = PERSON_AND_ORGANIZATION ( #205, #182 ) ;
#160 = CC_DESIGN_SECURITY_CLASSIFICATION ( #227, ( #217 ) ) ;
#161 = CARTESIAN_POINT ( 'NONE',  ( 4.292900533971642565E-14, 0.0000000000000000000, 12.29535580274374773 ) ) ;
#162 = FACE_OUTER_BOUND ( 'NONE', #3, .T. ) ;
#163 = COORDINATED_UNIVERSAL_TIME_OFFSET ( 1, 0, .AHEAD. ) ;
#164 = CIRCLE ( 'NONE', #128, 2.999999999999996447 ) ;
#165 = DATE_AND_TIME ( #246, #62 ) ;
#166 = DIRECTION ( 'NONE',  ( -1.010817540957225187E-30, -1.000000000000000000, -2.895096501624577769E-16 ) ) ;
#167 = DIRECTION ( 'NONE',  ( 1.000000000000000000, 0.0000000000000000000, -3.491481338843132961E-15 ) ) ;
#168 = PERSON_AND_ORGANIZATION ( #205, #182 ) ;
#169 = FACE_OUTER_BOUND ( 'NONE', #73, .T. ) ;
#170 = ORIENTED_EDGE ( 'NONE', *, *, #101, .F. ) ;
#171 = DIRECTION ( 'NONE',  ( 3.491481338843133355E-15, -2.895096501624577769E-16, 1.000000000000000000 ) ) ;
#172 = CC_DESIGN_PERSON_AND_ORGANIZATION_ASSIGNMENT ( #13, #114, ( #37 ) ) ;
#173 = AXIS2_PLACEMENT_3D ( 'NONE', #121, #15, #53 ) ;
#174 = FACE_OUTER_BOUND ( 'NONE', #258, .T. ) ;
#175 = DIRECTION ( 'NONE',  ( 1.000000000000000000, 0.0000000000000000000, 0.0000000000000000000 ) ) ;
#176 = CARTESIAN_POINT ( 'NONE',  ( 1.899365848330664293E-13, -8.643751163763465931E-15, 54.39999999999999858 ) ) ;
#177 = CIRCLE ( 'NONE', #80, 2.400000000000004352 ) ;
#178 = APPROVAL ( #68, 'UNSPECIFIED' ) ;
#179 = CARTESIAN_POINT ( 'NONE',  ( 2.000000000000029310, 0.0000000000000000000, 8.299999999999993605 ) ) ;
#180 = DATE_AND_TIME ( #8, #157 ) ;
#181 = ORIENTED_EDGE ( 'NONE', *, *, #224, .F. ) ;
#182 = ORGANIZATION ( 'UNSPECIFIED', 'UNSPECIFIED', '' ) ;
#183 = PERSON_AND_ORGANIZATION ( #205, #182 ) ;
#184 = CARTESIAN_POINT ( 'NONE',  ( 0.0000000000000000000, 0.0000000000000000000, 0.0000000000000000000 ) ) ;
#185 = EDGE_LOOP ( 'NONE', ( #98 ) ) ;
#186 = CYLINDRICAL_SURFACE ( 'NONE', #140, 2.000000000000000000 ) ;
#187 = PERSON_AND_ORGANIZATION ( #205, #182 ) ;
#188 = CARTESIAN_POINT ( 'NONE',  ( 2.897929511239800685E-14, 0.0000000000000000000, 8.300000000000000711 ) ) ;
#189 = EDGE_CURVE ( 'NONE', #27, #27, #263, .T. ) ;
#190 = VERTEX_POINT ( 'NONE', #179 ) ;
#191 = AXIS2_PLACEMENT_3D ( 'NONE', #99, #21, #40 ) ;
#192 = FACE_OUTER_BOUND ( 'NONE', #1, .T. ) ;
#193 = FACE_OUTER_BOUND ( 'NONE', #239, .T. ) ;
#194 = ADVANCED_FACE ( 'NONE', ( #109, #32 ), #186, .T. ) ;
#195 = DIRECTION ( 'NONE',  ( 3.491481338843133355E-15, -0.0000000000000000000, 1.000000000000000000 ) ) ;
#196 = TOROIDAL_SURFACE ( 'NONE', #65, 1.700000000000000178, 0.3000000000000000444 ) ;
#197 = AXIS2_PLACEMENT_3D ( 'NONE', #242, #219, #92 ) ;
#198 = FACE_OUTER_BOUND ( 'NONE', #185, .T. ) ;
#199 = APPROVAL_PERSON_ORGANIZATION ( #183, #20, #47 ) ;
#200 = CC_DESIGN_PERSON_AND_ORGANIZATION_ASSIGNMENT ( #231, #48, ( #217 ) ) ;
#201 = MECHANICAL_CONTEXT ( 'NONE', #154, 'mechanical' ) ;
#202 = UNCERTAINTY_MEASURE_WITH_UNIT (LENGTH_MEASURE( 1.000000000000000082E-05 ), #143, 'distance_accuracy_value', 'NONE');
#203 = ADVANCED_FACE ( 'NONE', ( #162 ), #115, .F. ) ;
#204 = VERTEX_POINT ( 'NONE', #125 ) ;
#205 = PERSON ( 'UNSPECIFIED', 'UNSPECIFIED', 'UNSPECIFIED', ('UNSPECIFIED'), ('UNSPECIFIED'), ('UNSPECIFIED') ) ;
#206 = DIRECTION ( 'NONE',  ( 1.000000000000000000, 0.0000000000000000000, -3.491481338843133355E-15 ) ) ;
#207 = AXIS2_PLACEMENT_3D ( 'NONE', #145, #84, #228 ) ;
#208 = DIRECTION ( 'NONE',  ( 1.978215994246302745E-30, -1.000000000000000000, 5.665835793645583166E-16 ) ) ;
#209 = CLOSED_SHELL ( 'NONE', ( #222, #138, #90, #7, #83, #61 ) ) ;
#210 = DATE_AND_TIME ( #63, #133 ) ;
#211 = CARTESIAN_POINT ( 'NONE',  ( 1.899365848330664293E-13, -3.000000000000012879, 54.39999999999999858 ) ) ;
#212 = COORDINATED_UNIVERSAL_TIME_OFFSET ( 1, 0, .AHEAD. ) ;
#213 = CC_DESIGN_PERSON_AND_ORGANIZATION_ASSIGNMENT ( #141, #225, ( #262 ) ) ;
#214 = CARTESIAN_POINT ( 'NONE',  ( 3.000000000000039524, 0.0000000000000000000, 12.29535580274373707 ) ) ;
#215 = COORDINATED_UNIVERSAL_TIME_OFFSET ( 1, 0, .AHEAD. ) ;
#216 = CARTESIAN_POINT ( 'NONE',  ( 2.897929511239801316E-14, 4.702643708725835369E-15, 8.300000000000002487 ) ) ;
#217 = PRODUCT_DEFINITION_FORMATION_WITH_SPECIFIED_SOURCE ( 'ANY', '', #262, .NOT_KNOWN. ) ;
#218 = CARTESIAN_POINT ( 'NONE',  ( 9.114143261561009744E-14, 0.0000000000000000000, 26.10394379074896420 ) ) ;
#219 = DIRECTION ( 'NONE',  ( 3.491481338843133355E-15, -0.0000000000000000000, 1.000000000000000000 ) ) ;
#220 = ORIENTED_EDGE ( 'NONE', *, *, #224, .T. ) ;
#221 = AXIS2_PLACEMENT_3D ( 'NONE', #54, #10, #35 ) ;
#222 = ADVANCED_FACE ( 'NONE', ( #51, #45 ), #25, .T. ) ;
#223 = DIRECTION ( 'NONE',  ( 1.010817540957225187E-30, 1.000000000000000000, 2.895096501624577769E-16 ) ) ;
#224 = EDGE_CURVE ( 'NONE', #113, #113, #164, .T. ) ;
#225 = PERSON_AND_ORGANIZATION_ROLE ( 'design_owner' ) ;
#226 = EDGE_LOOP ( 'NONE', ( #181 ) ) ;
#227 = SECURITY_CLASSIFICATION ( '', '', #26 ) ;
#228 = DIRECTION ( 'NONE',  ( 0.0000000000000000000, -1.000000000000000000, 0.0000000000000000000 ) ) ;
#229 = ORIENTED_EDGE ( 'NONE', *, *, #101, .T. ) ;
#230 = EDGE_LOOP ( 'NONE', ( #220 ) ) ;
#231 = PERSON_AND_ORGANIZATION ( #205, #182 ) ;
#232 = CARTESIAN_POINT ( 'NONE',  ( 2.000000000000029310, 0.0000000000000000000, 8.299999999999993605 ) ) ;
#233 = APPROVAL_DATE_TIME ( #146, #75 ) ;
#234 =( NAMED_UNIT ( * ) PLANE_ANGLE_UNIT ( ) SI_UNIT ( $, .RADIAN. ) );
#235 = EDGE_LOOP ( 'NONE', ( #229 ) ) ;
#236 = SHAPE_DEFINITION_REPRESENTATION ( #123, #111 ) ;
#237 = DIRECTION ( 'NONE',  ( -3.491481338843133355E-15, 2.895096501624577769E-16, -1.000000000000000000 ) ) ;
#238 = EDGE_LOOP ( 'NONE', ( #247 ) ) ;
#239 = EDGE_LOOP ( 'NONE', ( #87 ) ) ;
#240 = EDGE_CURVE ( 'NONE', #67, #67, #34, .T. ) ;
#241 = AXIS2_PLACEMENT_3D ( 'NONE', #76, #155, #167 ) ;
#242 = CARTESIAN_POINT ( 'NONE',  ( 2.897929511239800685E-14, 0.0000000000000000000, 8.300000000000000711 ) ) ;
#243 = CIRCLE ( 'NONE', #197, 2.000000000000000000 ) ;
#244 = AXIS2_PLACEMENT_3D ( 'NONE', #105, #46, #208 ) ;
#245 = VERTEX_POINT ( 'NONE', #232 ) ;
#246 = CALENDAR_DATE ( 2021, 9, 12 ) ;
#247 = ORIENTED_EDGE ( 'NONE', *, *, #52, .F. ) ;
#248 = VERTEX_POINT ( 'NONE', #94 ) ;
#249 = APPROVAL_STATUS ( 'not_yet_approved' ) ;
#250 = DIRECTION ( 'NONE',  ( 1.000000000000000000, 0.0000000000000000000, -3.469446951953618133E-15 ) ) ;
#251 = DIRECTION ( 'NONE',  ( 1.000000000000000000, 0.0000000000000000000, -3.496552006265751800E-15 ) ) ;
#252 = ORIENTED_EDGE ( 'NONE', *, *, #189, .T. ) ;
#253 =( NAMED_UNIT ( * ) SI_UNIT ( $, .STERADIAN. ) SOLID_ANGLE_UNIT ( ) );
#254 = CC_DESIGN_DATE_AND_TIME_ASSIGNMENT ( #165, #95, ( #37 ) ) ;
#255 = COORDINATED_UNIVERSAL_TIME_OFFSET ( 1, 0, .AHEAD. ) ;
#256 = ORIENTED_EDGE ( 'NONE', *, *, #189, .F. ) ;
#257 = APPLICATION_CONTEXT ( 'configuration controlled 3d designs of mechanical parts and assemblies' ) ;
#258 = EDGE_LOOP ( 'NONE', ( #152 ) ) ;
#259 = CLOSED_SHELL ( 'NONE', ( #203, #78, #194, #104 ) ) ;
#260 = EDGE_CURVE ( 'NONE', #204, #204, #142, .T. ) ;
#261 = FACE_OUTER_BOUND ( 'NONE', #238, .T. ) ;
#262 = PRODUCT ( '392822', '392822', '', ( #201 ) ) ;
#263 = CIRCLE ( 'NONE', #241, 1.700000000000000178 ) ;
ENDSEC;
END-ISO-10303-21;
