ISO-10303-21;
HEADER;
FILE_DESCRIPTION (( 'STEP AP203' ),
    '1' );
FILE_NAME ('392821.step',
    '2021-12-09T12:42:21',
    ( '' ),
    ( '' ),
    'SwSTEP 2.0',
    'SolidWorks 2019',
    '' );
FILE_SCHEMA (( 'CONFIG_CONTROL_DESIGN' ));
ENDSEC;

DATA;
#1 = DIRECTION ( 'NONE',  ( 0.0000000000000000000, -1.000000000000000000, 0.0000000000000000000 ) ) ;
#2 = COORDINATED_UNIVERSAL_TIME_OFFSET ( 1, 0, .AHEAD. ) ;
#3 = DIRECTION ( 'NONE',  ( 3.491481338843133355E-15, -2.895096501624577769E-16, 1.000000000000000000 ) ) ;
#4 = ADVANCED_FACE ( 'NONE', ( #26 ), #189, .F. ) ;
#5 = CARTESIAN_POINT ( 'NONE',  ( 1.920314736363723472E-13, -8.817456953860941711E-15, 55.00000000000000000 ) ) ;
#6 = DIRECTION ( 'NONE',  ( 1.010817540957225187E-30, 1.000000000000000000, 2.895096501624577769E-16 ) ) ;
#7 = DIRECTION ( 'NONE',  ( 1.000000000000000000, 0.0000000000000000000, -3.491481338843133355E-15 ) ) ;
#8 = CARTESIAN_POINT ( 'NONE',  ( 4.292900533971644458E-14, 0.0000000000000000000, 12.29535580274375306 ) ) ;
#9 = FACE_OUTER_BOUND ( 'NONE', #163, .T. ) ;
#10 = CALENDAR_DATE ( 2021, 9, 12 ) ;
#11 = DIRECTION ( 'NONE',  ( 3.491481338843133355E-15, -0.0000000000000000000, 1.000000000000000000 ) ) ;
#12 = LOCAL_TIME ( 13, 42, 21.00000000000000000, #2 ) ;
#13 = EDGE_CURVE ( 'NONE', #232, #232, #162, .T. ) ;
#14 = DATE_AND_TIME ( #10, #24 ) ;
#15 = CARTESIAN_POINT ( 'NONE',  ( 1.920314736363723472E-13, -2.400000000000013234, 55.00000000000000000 ) ) ;
#16 = CC_DESIGN_PERSON_AND_ORGANIZATION_ASSIGNMENT ( #219, #39, ( #217 ) ) ;
#17 = ORIENTED_EDGE ( 'NONE', *, *, #221, .F. ) ;
#18 = CALENDAR_DATE ( 2021, 9, 12 ) ;
#19 = ORIENTED_EDGE ( 'NONE', *, *, #34, .F. ) ;
#20 = AXIS2_PLACEMENT_3D ( 'NONE', #252, #52, #47 ) ;
#21 = DIRECTION ( 'NONE',  ( 1.000000000000000000, 0.0000000000000000000, -3.469446951953614189E-15 ) ) ;
#22 = CALENDAR_DATE ( 2021, 9, 12 ) ;
#23 = DIRECTION ( 'NONE',  ( 1.000000000000000000, 0.0000000000000000000, -3.571489509364016462E-15 ) ) ;
#24 = LOCAL_TIME ( 13, 42, 21.00000000000000000, #120 ) ;
#25 = CARTESIAN_POINT ( 'NONE',  ( 1.920314736363723472E-13, -8.817456953860941711E-15, 55.00000000000000000 ) ) ;
#26 = FACE_OUTER_BOUND ( 'NONE', #251, .T. ) ;
#27 = DIRECTION ( 'NONE',  ( -1.010817540957225187E-30, -1.000000000000000000, -2.895096501624577769E-16 ) ) ;
#28 = CIRCLE ( 'NONE', #61, 2.999999999999996447 ) ;
#29 = DIRECTION ( 'NONE',  ( 1.000000000000000000, 0.0000000000000000000, -3.491481338843133355E-15 ) ) ;
#30 = CYLINDRICAL_SURFACE ( 'NONE', #182, 2.999999999999996447 ) ;
#31 = SECURITY_CLASSIFICATION ( '', '', #190 ) ;
#32 = DIRECTION ( 'NONE',  ( 3.491481338843133355E-15, -0.0000000000000000000, 1.000000000000000000 ) ) ;
#33 = DIRECTION ( 'NONE',  ( 3.491481338843133355E-15, 5.665835793645583166E-16, 1.000000000000000000 ) ) ;
#34 = EDGE_CURVE ( 'NONE', #35, #35, #86, .T. ) ;
#35 = VERTEX_POINT ( 'NONE', #15 ) ;
#36 = PERSON_AND_ORGANIZATION_ROLE ( 'design_owner' ) ;
#37 = ADVANCED_FACE ( 'NONE', ( #108, #145 ), #121, .T. ) ;
#38 = PERSON_AND_ORGANIZATION ( #55, #242 ) ;
#39 = PERSON_AND_ORGANIZATION_ROLE ( 'creator' ) ;
#40 = SHAPE_DEFINITION_REPRESENTATION ( #228, #118 ) ;
#41 = FACE_BOUND ( 'NONE', #68, .T. ) ;
#42 = ADVANCED_FACE ( 'NONE', ( #41, #249 ), #261, .T. ) ;
#43 = PERSON_AND_ORGANIZATION ( #55, #242 ) ;
#44 = DIRECTION ( 'NONE',  ( -3.491481338843133355E-15, 2.895096501624577769E-16, -1.000000000000000000 ) ) ;
#45 = ORIENTED_EDGE ( 'NONE', *, *, #34, .T. ) ;
#46 = CIRCLE ( 'NONE', #170, 2.000000000000000000 ) ;
#47 = DIRECTION ( 'NONE',  ( 0.0000000000000000000, -1.000000000000000000, 0.0000000000000000000 ) ) ;
#48 = PRODUCT_DEFINITION ( 'UNKNOWN', '', #217, #247 ) ;
#49 = DIRECTION ( 'NONE',  ( -3.491481338843133355E-15, 2.895096501624577769E-16, -1.000000000000000000 ) ) ;
#50 = CC_DESIGN_APPROVAL ( #240, ( #217 ) ) ;
#51 = CC_DESIGN_PERSON_AND_ORGANIZATION_ASSIGNMENT ( #66, #208, ( #31 ) ) ;
#52 = DIRECTION ( 'NONE',  ( 3.491481338843133355E-15, -2.895096501624577769E-16, 1.000000000000000000 ) ) ;
#53 = TOROIDAL_SURFACE ( 'NONE', #126, 1.800000000000000044, 0.2000000000000001221 ) ;
#54 =( NAMED_UNIT ( * ) SI_UNIT ( $, .STERADIAN. ) SOLID_ANGLE_UNIT ( ) );
#55 = PERSON ( 'UNSPECIFIED', 'UNSPECIFIED', 'UNSPECIFIED', ('UNSPECIFIED'), ('UNSPECIFIED'), ('UNSPECIFIED') ) ;
#56 = MECHANICAL_CONTEXT ( 'NONE', #69, 'mechanical' ) ;
#57 = CLOSED_SHELL ( 'NONE', ( #113, #156, #188, #256 ) ) ;
#58 = APPROVAL_DATE_TIME ( #161, #240 ) ;
#59 = CARTESIAN_POINT ( 'NONE',  ( 3.000000000000039524, 0.0000000000000000000, 12.29535580274374240 ) ) ;
#60 = CC_DESIGN_PERSON_AND_ORGANIZATION_ASSIGNMENT ( #164, #36, ( #89 ) ) ;
#61 = AXIS2_PLACEMENT_3D ( 'NONE', #8, #94, #195 ) ;
#62 = APPROVAL_STATUS ( 'not_yet_approved' ) ;
#63 = EDGE_LOOP ( 'NONE', ( #175 ) ) ;
#64 = CC_DESIGN_DATE_AND_TIME_ASSIGNMENT ( #218, #96, ( #48 ) ) ;
#65 = DIRECTION ( 'NONE',  ( 3.491481338843133355E-15, -0.0000000000000000000, 1.000000000000000000 ) ) ;
#66 = PERSON_AND_ORGANIZATION ( #55, #242 ) ;
#67 = CIRCLE ( 'NONE', #234, 2.000000000000000000 ) ;
#68 = EDGE_LOOP ( 'NONE', ( #107 ) ) ;
#69 = APPLICATION_CONTEXT ( 'configuration controlled 3d designs of mechanical parts and assemblies' ) ;
#70 = DIRECTION ( 'NONE',  ( 1.978215994246302745E-30, -1.000000000000000000, 5.665835793645583166E-16 ) ) ;
#71 = CARTESIAN_POINT ( 'NONE',  ( 2.897929511239801316E-14, 4.702643708725835369E-15, 8.300000000000002487 ) ) ;
#72 = DIRECTION ( 'NONE',  ( 3.491481338843133355E-15, -0.0000000000000000000, 1.000000000000000000 ) ) ;
#73 = APPROVAL_PERSON_ORGANIZATION ( #186, #85, #166 ) ;
#74 = CARTESIAN_POINT ( 'NONE',  ( -2.967323991369449913E-30, 2.999999999999995559, -8.498753690468361930E-16 ) ) ;
#75 = CARTESIAN_POINT ( 'NONE',  ( 2.068148347421890243, 0.0000000000000000000, 8.817638090205020873 ) ) ;
#76 = VERTEX_POINT ( 'NONE', #77 ) ;
#77 = CARTESIAN_POINT ( 'NONE',  ( 1.800000000000000044, 0.0000000000000000000, -6.393086627166190483E-15 ) ) ;
#78 = CC_DESIGN_APPROVAL ( #104, ( #48 ) ) ;
#79 = ADVANCED_FACE ( 'NONE', ( #111, #137 ), #173, .F. ) ;
#80 = ORIENTED_EDGE ( 'NONE', *, *, #196, .T. ) ;
#81 = COORDINATED_UNIVERSAL_TIME_OFFSET ( 1, 0, .AHEAD. ) ;
#82 = AXIS2_PLACEMENT_3D ( 'NONE', #191, #44, #223 ) ;
#83 = ORIENTED_EDGE ( 'NONE', *, *, #205, .F. ) ;
#84 = APPLICATION_PROTOCOL_DEFINITION ( 'international standard', 'config_control_design', 1994, #69 ) ;
#85 = APPROVAL ( #62, 'UNSPECIFIED' ) ;
#86 = CIRCLE ( 'NONE', #230, 2.400000000000004352 ) ;
#87 = EDGE_CURVE ( 'NONE', #203, #203, #67, .T. ) ;
#88 = ORIENTED_EDGE ( 'NONE', *, *, #124, .F. ) ;
#89 = PRODUCT ( '392821', '392821', '', ( #56 ) ) ;
#90 = EDGE_LOOP ( 'NONE', ( #45 ) ) ;
#91 = FACE_OUTER_BOUND ( 'NONE', #158, .T. ) ;
#92 = ORIENTED_EDGE ( 'NONE', *, *, #131, .F. ) ;
#93 = FACE_OUTER_BOUND ( 'NONE', #143, .T. ) ;
#94 = DIRECTION ( 'NONE',  ( -3.491481338843133355E-15, 0.0000000000000000000, -1.000000000000000000 ) ) ;
#95 = AXIS2_PLACEMENT_3D ( 'NONE', #210, #211, #27 ) ;
#96 = DATE_TIME_ROLE ( 'creation_date' ) ;
#97 = FACE_OUTER_BOUND ( 'NONE', #147, .T. ) ;
#98 = APPLICATION_CONTEXT ( 'configuration controlled 3d designs of mechanical parts and assemblies' ) ;
#99 = VERTEX_POINT ( 'NONE', #59 ) ;
#100 = CIRCLE ( 'NONE', #212, 1.800000000000000044 ) ;
#101 =( LENGTH_UNIT ( ) NAMED_UNIT ( * ) SI_UNIT ( .MILLI., .METRE. ) );
#102 = PERSON_AND_ORGANIZATION ( #55, #242 ) ;
#103 = CIRCLE ( 'NONE', #250, 2.000000000000000000 ) ;
#104 = APPROVAL ( #197, 'UNSPECIFIED' ) ;
#105 = DATE_TIME_ROLE ( 'classification_date' ) ;
#106 = EDGE_LOOP ( 'NONE', ( #237 ) ) ;
#107 = ORIENTED_EDGE ( 'NONE', *, *, #13, .T. ) ;
#108 = FACE_BOUND ( 'NONE', #169, .T. ) ;
#109 = DIRECTION ( 'NONE',  ( 3.491481338843133355E-15, -2.895096501624577769E-16, 1.000000000000000000 ) ) ;
#110 = DIRECTION ( 'NONE',  ( 3.491481338843133355E-15, -0.0000000000000000000, 1.000000000000000000 ) ) ;
#111 = FACE_OUTER_BOUND ( 'NONE', #106, .T. ) ;
#112 = DIRECTION ( 'NONE',  ( 0.0000000000000000000, -1.000000000000000000, 0.0000000000000000000 ) ) ;
#113 = ADVANCED_FACE ( 'NONE', ( #254 ), #229, .F. ) ;
#114 = FACE_OUTER_BOUND ( 'NONE', #220, .T. ) ;
#115 = AXIS2_PLACEMENT_3D ( 'NONE', #216, #179, #29 ) ;
#116 = DIRECTION ( 'NONE',  ( 0.0000000000000000000, 0.0000000000000000000, 1.000000000000000000 ) ) ;
#117 = DIRECTION ( 'NONE',  ( 1.000000000000000000, 0.0000000000000000000, -3.496552006265751800E-15 ) ) ;
#118 = ADVANCED_BREP_SHAPE_REPRESENTATION ( '392821', ( #167, #165, #172 ), #263 ) ;
#119 = AXIS2_PLACEMENT_3D ( 'NONE', #71, #174, #153 ) ;
#120 = COORDINATED_UNIVERSAL_TIME_OFFSET ( 1, 0, .AHEAD. ) ;
#121 = CONICAL_SURFACE ( 'NONE', #82, 3.000000000000004441, 0.7853981633974453924 ) ;
#122 = PERSON_AND_ORGANIZATION ( #55, #242 ) ;
#123 = ORIENTED_EDGE ( 'NONE', *, *, #124, .T. ) ;
#124 = EDGE_CURVE ( 'NONE', #201, #201, #103, .T. ) ;
#125 = ORIENTED_EDGE ( 'NONE', *, *, #221, .T. ) ;
#126 = AXIS2_PLACEMENT_3D ( 'NONE', #134, #227, #7 ) ;
#127 = CALENDAR_DATE ( 2021, 9, 12 ) ;
#128 = CARTESIAN_POINT ( 'NONE',  ( 9.244447119063426284E-14, 0.0000000000000000000, 26.47714887150586804 ) ) ;
#129 = UNCERTAINTY_MEASURE_WITH_UNIT (LENGTH_MEASURE( 1.000000000000000082E-05 ), #101, 'distance_accuracy_value', 'NONE');
#130 = FACE_OUTER_BOUND ( 'NONE', #90, .T. ) ;
#131 = EDGE_CURVE ( 'NONE', #141, #141, #138, .T. ) ;
#132 = LOCAL_TIME ( 13, 42, 21.00000000000000000, #81 ) ;
#133 = AXIS2_PLACEMENT_3D ( 'NONE', #5, #49, #6 ) ;
#134 = CARTESIAN_POINT ( 'NONE',  ( 6.982962677686267697E-16, 0.0000000000000000000, 0.2000000000000000389 ) ) ;
#135 = FACE_OUTER_BOUND ( 'NONE', #260, .T. ) ;
#136 = DIRECTION ( 'NONE',  ( 3.491481338843133355E-15, -0.0000000000000000000, 1.000000000000000000 ) ) ;
#137 = FACE_OUTER_BOUND ( 'NONE', #206, .T. ) ;
#138 = CIRCLE ( 'NONE', #20, 3.000000000000004441 ) ;
#139 = CARTESIAN_POINT ( 'NONE',  ( 2.000000000000029310, 0.0000000000000000000, 8.299999999999993605 ) ) ;
#140 = EDGE_LOOP ( 'NONE', ( #204 ) ) ;
#141 = VERTEX_POINT ( 'NONE', #235 ) ;
#142 = COORDINATED_UNIVERSAL_TIME_OFFSET ( 1, 0, .AHEAD. ) ;
#143 = EDGE_LOOP ( 'NONE', ( #123 ) ) ;
#144 =( NAMED_UNIT ( * ) PLANE_ANGLE_UNIT ( ) SI_UNIT ( $, .RADIAN. ) );
#145 = FACE_OUTER_BOUND ( 'NONE', #63, .T. ) ;
#146 = DATE_AND_TIME ( #127, #159 ) ;
#147 = EDGE_LOOP ( 'NONE', ( #80 ) ) ;
#148 = APPROVAL_PERSON_ORGANIZATION ( #38, #240, #259 ) ;
#149 = AXIS2_PLACEMENT_3D ( 'NONE', #128, #207, #23 ) ;
#150 = CARTESIAN_POINT ( 'NONE',  ( -3.785471652766322713E-31, 0.0000000000000000000, -1.084202172485504434E-16 ) ) ;
#151 = LOCAL_TIME ( 13, 42, 21.00000000000000000, #142 ) ;
#152 = FACE_OUTER_BOUND ( 'NONE', #258, .T. ) ;
#153 = DIRECTION ( 'NONE',  ( -1.978215994246302745E-30, 1.000000000000000000, -5.665835793645583166E-16 ) ) ;
#154 = CARTESIAN_POINT ( 'NONE',  ( 6.982962677686267697E-16, 0.0000000000000000000, 0.2000000000000000389 ) ) ;
#155 = CARTESIAN_POINT ( 'NONE',  ( 2.000000000000000888, 0.0000000000000000000, 0.1999999999999930445 ) ) ;
#156 = ADVANCED_FACE ( 'NONE', ( #97, #114 ), #53, .T. ) ;
#157 = VERTEX_POINT ( 'NONE', #139 ) ;
#158 = EDGE_LOOP ( 'NONE', ( #17 ) ) ;
#159 = LOCAL_TIME ( 13, 42, 21.00000000000000000, #245 ) ;
#160 = ORIENTED_EDGE ( 'NONE', *, *, #87, .F. ) ;
#161 = DATE_AND_TIME ( #18, #132 ) ;
#162 = CIRCLE ( 'NONE', #194, 2.068148347421859601 ) ;
#163 = EDGE_LOOP ( 'NONE', ( #236 ) ) ;
#164 = PERSON_AND_ORGANIZATION ( #55, #242 ) ;
#165 = MANIFOLD_SOLID_BREP ( 'Corps-Déplacer/Copier1[2]', #57 ) ;
#166 = APPROVAL_ROLE ( '' ) ;
#167 = MANIFOLD_SOLID_BREP ( 'Corps-Déplacer/Copier1[1]', #199 ) ;
#168 = CC_DESIGN_DATE_AND_TIME_ASSIGNMENT ( #171, #105, ( #31 ) ) ;
#169 = EDGE_LOOP ( 'NONE', ( #19 ) ) ;
#170 = AXIS2_PLACEMENT_3D ( 'NONE', #253, #72, #21 ) ;
#171 = DATE_AND_TIME ( #22, #12 ) ;
#172 = AXIS2_PLACEMENT_3D ( 'NONE', #262, #116, #200 ) ;
#173 = TOROIDAL_SURFACE ( 'NONE', #115, 4.000000000000000000, 2.000000000000000000 ) ;
#174 = DIRECTION ( 'NONE',  ( -3.491481338843133355E-15, -5.665835793645583166E-16, -1.000000000000000000 ) ) ;
#175 = ORIENTED_EDGE ( 'NONE', *, *, #131, .T. ) ;
#176 = DIRECTION ( 'NONE',  ( 1.000000000000000000, 0.0000000000000000000, -3.469446951953614189E-15 ) ) ;
#177 = PLANE ( 'NONE',  #119 ) ;
#178 = DIRECTION ( 'NONE',  ( 1.000000000000000000, 0.0000000000000000000, -3.491481338843133355E-15 ) ) ;
#179 = DIRECTION ( 'NONE',  ( 3.491481338843133355E-15, -0.0000000000000000000, 1.000000000000000000 ) ) ;
#180 = CC_DESIGN_PERSON_AND_ORGANIZATION_ASSIGNMENT ( #102, #238, ( #48 ) ) ;
#181 = CARTESIAN_POINT ( 'NONE',  ( 2.000000000000029310, 0.0000000000000000000, 8.299999999999993605 ) ) ;
#182 = AXIS2_PLACEMENT_3D ( 'NONE', #225, #109, #112 ) ;
#183 = APPROVAL_ROLE ( '' ) ;
#184 = CALENDAR_DATE ( 2021, 9, 12 ) ;
#185 = PRODUCT_RELATED_PRODUCT_CATEGORY ( 'detail', '', ( #89 ) ) ;
#186 = PERSON_AND_ORGANIZATION ( #55, #242 ) ;
#187 = DIRECTION ( 'NONE',  ( 1.000000000000000000, 0.0000000000000000000, -3.355123878109231823E-15 ) ) ;
#188 = ADVANCED_FACE ( 'NONE', ( #93, #152 ), #193, .T. ) ;
#189 = PLANE ( 'NONE',  #95 ) ;
#190 = SECURITY_CLASSIFICATION_LEVEL ( 'unclassified' ) ;
#191 = CARTESIAN_POINT ( 'NONE',  ( 1.899365848330664293E-13, -8.643751163763465931E-15, 54.39999999999999858 ) ) ;
#192 = CARTESIAN_POINT ( 'NONE',  ( 2.897929511239800685E-14, 0.0000000000000000000, 8.300000000000000711 ) ) ;
#193 = CYLINDRICAL_SURFACE ( 'NONE', #244, 2.000000000000000000 ) ;
#194 = AXIS2_PLACEMENT_3D ( 'NONE', #224, #65, #187 ) ;
#195 = DIRECTION ( 'NONE',  ( 1.000000000000000000, 0.0000000000000000000, -3.469446951953618133E-15 ) ) ;
#196 = EDGE_CURVE ( 'NONE', #76, #76, #100, .T. ) ;
#197 = APPROVAL_STATUS ( 'not_yet_approved' ) ;
#198 = EDGE_LOOP ( 'NONE', ( #125 ) ) ;
#199 = CLOSED_SHELL ( 'NONE', ( #213, #37, #209, #42, #79, #4 ) ) ;
#200 = DIRECTION ( 'NONE',  ( 1.000000000000000000, 0.0000000000000000000, 0.0000000000000000000 ) ) ;
#201 = VERTEX_POINT ( 'NONE', #155 ) ;
#202 = CC_DESIGN_APPROVAL ( #85, ( #31 ) ) ;
#203 = VERTEX_POINT ( 'NONE', #181 ) ;
#204 = ORIENTED_EDGE ( 'NONE', *, *, #196, .F. ) ;
#205 = EDGE_CURVE ( 'NONE', #157, #157, #46, .T. ) ;
#206 = EDGE_LOOP ( 'NONE', ( #239 ) ) ;
#207 = DIRECTION ( 'NONE',  ( 3.491481338843133355E-15, -0.0000000000000000000, 1.000000000000000000 ) ) ;
#208 = PERSON_AND_ORGANIZATION_ROLE ( 'classification_officer' ) ;
#209 = ADVANCED_FACE ( 'NONE', ( #130 ), #246, .F. ) ;
#210 = CARTESIAN_POINT ( 'NONE',  ( 2.897929511239801316E-14, 4.702643708725835369E-15, 8.300000000000002487 ) ) ;
#211 = DIRECTION ( 'NONE',  ( 3.491481338843133355E-15, -2.895096501624577769E-16, 1.000000000000000000 ) ) ;
#212 = AXIS2_PLACEMENT_3D ( 'NONE', #150, #32, #178 ) ;
#213 = ADVANCED_FACE ( 'NONE', ( #135, #91 ), #30, .T. ) ;
#214 = DIRECTION ( 'NONE',  ( 1.000000000000000000, 0.0000000000000000000, -3.491481338843133355E-15 ) ) ;
#215 = AXIS2_PLACEMENT_3D ( 'NONE', #74, #33, #70 ) ;
#216 = CARTESIAN_POINT ( 'NONE',  ( 2.897929511239800685E-14, 0.0000000000000000000, 8.300000000000000711 ) ) ;
#217 = PRODUCT_DEFINITION_FORMATION_WITH_SPECIFIED_SOURCE ( 'ANY', '', #89, .NOT_KNOWN. ) ;
#218 = DATE_AND_TIME ( #184, #151 ) ;
#219 = PERSON_AND_ORGANIZATION ( #55, #242 ) ;
#220 = EDGE_LOOP ( 'NONE', ( #88 ) ) ;
#221 = EDGE_CURVE ( 'NONE', #99, #99, #28, .T. ) ;
#222 = PERSON_AND_ORGANIZATION_ROLE ( 'design_supplier' ) ;
#223 = DIRECTION ( 'NONE',  ( 0.0000000000000000000, 1.000000000000000000, 0.0000000000000000000 ) ) ;
#224 = CARTESIAN_POINT ( 'NONE',  ( 3.078661884462326481E-14, 0.0000000000000000000, 8.817638090205027979 ) ) ;
#225 = CARTESIAN_POINT ( 'NONE',  ( 1.920314736363723472E-13, -8.817456953860941711E-15, 55.00000000000000000 ) ) ;
#226 = CC_DESIGN_PERSON_AND_ORGANIZATION_ASSIGNMENT ( #43, #222, ( #217 ) ) ;
#227 = DIRECTION ( 'NONE',  ( 3.491481338843133355E-15, -0.0000000000000000000, 1.000000000000000000 ) ) ;
#228 = PRODUCT_DEFINITION_SHAPE ( 'NONE', 'NONE',  #48 ) ;
#229 = PLANE ( 'NONE',  #215 ) ;
#230 = AXIS2_PLACEMENT_3D ( 'NONE', #25, #3, #1 ) ;
#231 = CARTESIAN_POINT ( 'NONE',  ( 0.0000000000000000000, 0.0000000000000000000, 0.0000000000000000000 ) ) ;
#232 = VERTEX_POINT ( 'NONE', #75 ) ;
#233 = APPROVAL_PERSON_ORGANIZATION ( #122, #104, #183 ) ;
#234 = AXIS2_PLACEMENT_3D ( 'NONE', #192, #110, #176 ) ;
#235 = CARTESIAN_POINT ( 'NONE',  ( 1.899365848330664293E-13, -3.000000000000012879, 54.39999999999999858 ) ) ;
#236 = ORIENTED_EDGE ( 'NONE', *, *, #205, .T. ) ;
#237 = ORIENTED_EDGE ( 'NONE', *, *, #87, .T. ) ;
#238 = PERSON_AND_ORGANIZATION_ROLE ( 'creator' ) ;
#239 = ORIENTED_EDGE ( 'NONE', *, *, #13, .F. ) ;
#240 = APPROVAL ( #255, 'UNSPECIFIED' ) ;
#241 = APPLICATION_PROTOCOL_DEFINITION ( 'international standard', 'config_control_design', 1994, #98 ) ;
#242 = ORGANIZATION ( 'UNSPECIFIED', 'UNSPECIFIED', '' ) ;
#243 = APPROVAL_DATE_TIME ( #146, #85 ) ;
#244 = AXIS2_PLACEMENT_3D ( 'NONE', #231, #136, #214 ) ;
#245 = COORDINATED_UNIVERSAL_TIME_OFFSET ( 1, 0, .AHEAD. ) ;
#246 = PLANE ( 'NONE',  #133 ) ;
#247 = DESIGN_CONTEXT ( 'detailed design', #98, 'design' ) ;
#248 = CC_DESIGN_SECURITY_CLASSIFICATION ( #31, ( #217 ) ) ;
#249 = FACE_OUTER_BOUND ( 'NONE', #198, .T. ) ;
#250 = AXIS2_PLACEMENT_3D ( 'NONE', #154, #11, #117 ) ;
#251 = EDGE_LOOP ( 'NONE', ( #160 ) ) ;
#252 = CARTESIAN_POINT ( 'NONE',  ( 1.899365848330664293E-13, -8.643751163763465931E-15, 54.39999999999999858 ) ) ;
#253 = CARTESIAN_POINT ( 'NONE',  ( 2.897929511239800685E-14, 0.0000000000000000000, 8.300000000000000711 ) ) ;
#254 = FACE_OUTER_BOUND ( 'NONE', #140, .T. ) ;
#255 = APPROVAL_STATUS ( 'not_yet_approved' ) ;
#256 = ADVANCED_FACE ( 'NONE', ( #9 ), #177, .F. ) ;
#257 = APPROVAL_DATE_TIME ( #14, #104 ) ;
#258 = EDGE_LOOP ( 'NONE', ( #83 ) ) ;
#259 = APPROVAL_ROLE ( '' ) ;
#260 = EDGE_LOOP ( 'NONE', ( #92 ) ) ;
#261 = CONICAL_SURFACE ( 'NONE', #149, 6.799999999999997158, 0.2617993877991427465 ) ;
#262 = CARTESIAN_POINT ( 'NONE',  ( 0.0000000000000000000, 0.0000000000000000000, 0.0000000000000000000 ) ) ;
#263 =( GEOMETRIC_REPRESENTATION_CONTEXT ( 3 ) GLOBAL_UNCERTAINTY_ASSIGNED_CONTEXT ( ( #129 ) ) GLOBAL_UNIT_ASSIGNED_CONTEXT ( ( #101, #144, #54 ) ) REPRESENTATION_CONTEXT ( 'NONE', 'WORKASPACE' ) );
ENDSEC;
END-ISO-10303-21;
