ISO-10303-21;
HEADER;
FILE_DESCRIPTION (( 'STEP AP203' ),
    '1' );
FILE_NAME ('392820.step',
    '2021-12-09T12:42:21',
    ( '' ),
    ( '' ),
    'SwSTEP 2.0',
    'SolidWorks 2019',
    '' );
FILE_SCHEMA (( 'CONFIG_CONTROL_DESIGN' ));
ENDSEC;

DATA;
#1 = FACE_OUTER_BOUND ( 'NONE', #178, .T. ) ;
#2 = LOCAL_TIME ( 13, 42, 21.00000000000000000, #9 ) ;
#3 = ADVANCED_FACE ( 'NONE', ( #59, #77 ), #138, .T. ) ;
#4 = CARTESIAN_POINT ( 'NONE',  ( 1.500000000000001332, 0.0000000000000000000, 0.2999999999999947708 ) ) ;
#5 = DIRECTION ( 'NONE',  ( 1.000000000000000000, 0.0000000000000000000, -3.491481338843132961E-15 ) ) ;
#6 = CC_DESIGN_PERSON_AND_ORGANIZATION_ASSIGNMENT ( #238, #148, ( #142 ) ) ;
#7 = ORIENTED_EDGE ( 'NONE', *, *, #61, .T. ) ;
#8 = AXIS2_PLACEMENT_3D ( 'NONE', #103, #250, #229 ) ;
#9 = COORDINATED_UNIVERSAL_TIME_OFFSET ( 1, 0, .AHEAD. ) ;
#10 = DATE_AND_TIME ( #69, #243 ) ;
#11 = EDGE_LOOP ( 'NONE', ( #233 ) ) ;
#12 = DATE_TIME_ROLE ( 'classification_date' ) ;
#13 = DATE_AND_TIME ( #89, #50 ) ;
#14 = EDGE_LOOP ( 'NONE', ( #175 ) ) ;
#15 = AXIS2_PLACEMENT_3D ( 'NONE', #35, #75, #20 ) ;
#16 = APPROVAL_DATE_TIME ( #13, #144 ) ;
#17 = ORIENTED_EDGE ( 'NONE', *, *, #74, .T. ) ;
#18 = FACE_OUTER_BOUND ( 'NONE', #58, .T. ) ;
#19 = DIRECTION ( 'NONE',  ( 1.000000000000000000, 0.0000000000000000000, -3.469446951953614189E-15 ) ) ;
#20 = DIRECTION ( 'NONE',  ( -1.723906646440996010E-30, 1.000000000000000000, -4.937464872752820530E-16 ) ) ;
#21 = FACE_OUTER_BOUND ( 'NONE', #177, .T. ) ;
#22 = FACE_OUTER_BOUND ( 'NONE', #216, .T. ) ;
#23 = EDGE_LOOP ( 'NONE', ( #247 ) ) ;
#24 = CARTESIAN_POINT ( 'NONE',  ( 0.0000000000000000000, 0.0000000000000000000, 0.0000000000000000000 ) ) ;
#25 = PERSON_AND_ORGANIZATION_ROLE ( 'creator' ) ;
#26 =( NAMED_UNIT ( * ) PLANE_ANGLE_UNIT ( ) SI_UNIT ( $, .RADIAN. ) );
#27 = AXIS2_PLACEMENT_3D ( 'NONE', #198, #141, #221 ) ;
#28 =( NAMED_UNIT ( * ) SI_UNIT ( $, .STERADIAN. ) SOLID_ANGLE_UNIT ( ) );
#29 = CARTESIAN_POINT ( 'NONE',  ( 1.568148347421883804, 0.0000000000000000000, 6.817638090205024426 ) ) ;
#30 = CC_DESIGN_PERSON_AND_ORGANIZATION_ASSIGNMENT ( #205, #25, ( #170 ) ) ;
#31 = PERSON_AND_ORGANIZATION ( #214, #219 ) ;
#32 = CC_DESIGN_APPROVAL ( #195, ( #142 ) ) ;
#33 = ORIENTED_EDGE ( 'NONE', *, *, #182, .F. ) ;
#34 = APPROVAL_PERSON_ORGANIZATION ( #171, #144, #88 ) ;
#35 = CARTESIAN_POINT ( 'NONE',  ( 2.199633243471174329E-14, 3.110602869834277260E-15, 6.300000000000000711 ) ) ;
#36 = EDGE_CURVE ( 'NONE', #162, #162, #49, .T. ) ;
#37 = DIRECTION ( 'NONE',  ( -3.491481338843133355E-15, 0.0000000000000000000, -1.000000000000000000 ) ) ;
#38 = FACE_OUTER_BOUND ( 'NONE', #150, .T. ) ;
#39 = AXIS2_PLACEMENT_3D ( 'NONE', #239, #55, #136 ) ;
#40 = CARTESIAN_POINT ( 'NONE',  ( 2.199633243471174014E-14, 3.110602869834276865E-15, 6.299999999999999822 ) ) ;
#41 = AXIS2_PLACEMENT_3D ( 'NONE', #68, #246, #42 ) ;
#42 = DIRECTION ( 'NONE',  ( 1.000000000000000000, 0.0000000000000000000, -3.491481338843133355E-15 ) ) ;
#43 = VERTEX_POINT ( 'NONE', #248 ) ;
#44 = CONICAL_SURFACE ( 'NONE', #100, 3.000000000000004441, 0.7853981633974453924 ) ;
#45 = DIRECTION ( 'NONE',  ( 0.0000000000000000000, -1.000000000000000000, 0.0000000000000000000 ) ) ;
#46 = EDGE_CURVE ( 'NONE', #85, #85, #112, .T. ) ;
#47 = PERSON_AND_ORGANIZATION_ROLE ( 'design_owner' ) ;
#48 = PERSON_AND_ORGANIZATION ( #214, #219 ) ;
#49 = CIRCLE ( 'NONE', #225, 1.500000000000000000 ) ;
#50 = LOCAL_TIME ( 13, 42, 21.00000000000000000, #252 ) ;
#51 = EDGE_LOOP ( 'NONE', ( #33 ) ) ;
#52 = CC_DESIGN_DATE_AND_TIME_ASSIGNMENT ( #132, #12, ( #62 ) ) ;
#53 = CIRCLE ( 'NONE', #251, 1.568148347421860045 ) ;
#54 = CARTESIAN_POINT ( 'NONE',  ( -1.892735826383161356E-31, 0.0000000000000000000, -5.421010862427522170E-17 ) ) ;
#55 = DIRECTION ( 'NONE',  ( 3.491481338843133355E-15, -0.0000000000000000000, 1.000000000000000000 ) ) ;
#56 = DIRECTION ( 'NONE',  ( 1.000000000000000000, 0.0000000000000000000, -3.357529308342208094E-15 ) ) ;
#57 = AXIS2_PLACEMENT_3D ( 'NONE', #24, #63, #143 ) ;
#58 = EDGE_LOOP ( 'NONE', ( #7 ) ) ;
#59 = FACE_BOUND ( 'NONE', #23, .T. ) ;
#60 = VERTEX_POINT ( 'NONE', #193 ) ;
#61 = EDGE_CURVE ( 'NONE', #159, #159, #186, .T. ) ;
#62 = SECURITY_CLASSIFICATION ( '', '', #203 ) ;
#63 = DIRECTION ( 'NONE',  ( 0.0000000000000000000, 0.0000000000000000000, 1.000000000000000000 ) ) ;
#64 = CARTESIAN_POINT ( 'NONE',  ( 1.920314736363723472E-13, -8.817456953860941711E-15, 55.00000000000000000 ) ) ;
#65 = APPROVAL_ROLE ( '' ) ;
#66 = DIRECTION ( 'NONE',  ( 3.491481338843133355E-15, -2.449293598294706414E-16, 1.000000000000000000 ) ) ;
#67 = CIRCLE ( 'NONE', #236, 1.200000000000000178 ) ;
#68 = CARTESIAN_POINT ( 'NONE',  ( 2.199633243471174014E-14, 0.0000000000000000000, 6.299999999999999822 ) ) ;
#69 = CALENDAR_DATE ( 2021, 9, 12 ) ;
#70 = ADVANCED_BREP_SHAPE_REPRESENTATION ( '392820', ( #92, #188, #57 ), #105 ) ;
#71 = ADVANCED_FACE ( 'NONE', ( #113, #38 ), #218, .T. ) ;
#72 = AXIS2_PLACEMENT_3D ( 'NONE', #215, #179, #241 ) ;
#73 = EDGE_LOOP ( 'NONE', ( #86 ) ) ;
#74 = EDGE_CURVE ( 'NONE', #228, #228, #180, .T. ) ;
#75 = DIRECTION ( 'NONE',  ( -3.491481338843133355E-15, -4.937464872752820530E-16, -1.000000000000000000 ) ) ;
#76 = AXIS2_PLACEMENT_3D ( 'NONE', #64, #66, #45 ) ;
#77 = FACE_OUTER_BOUND ( 'NONE', #109, .T. ) ;
#78 = CARTESIAN_POINT ( 'NONE',  ( 2.199633243471174014E-14, 0.0000000000000000000, 6.299999999999999822 ) ) ;
#79 = APPROVAL ( #210, 'UNSPECIFIED' ) ;
#80 = DIRECTION ( 'NONE',  ( 1.000000000000000000, 0.0000000000000000000, -3.491481338843133355E-15 ) ) ;
#81 = FACE_OUTER_BOUND ( 'NONE', #11, .T. ) ;
#82 = MECHANICAL_CONTEXT ( 'NONE', #192, 'mechanical' ) ;
#83 = CARTESIAN_POINT ( 'NONE',  ( 1.920314736363723472E-13, -8.817456953860941711E-15, 55.00000000000000000 ) ) ;
#84 = CARTESIAN_POINT ( 'NONE',  ( 3.000000000000040856, 0.0000000000000000000, 12.16138120652823851 ) ) ;
#85 = VERTEX_POINT ( 'NONE', #4 ) ;
#86 = ORIENTED_EDGE ( 'NONE', *, *, #36, .F. ) ;
#87 = COORDINATED_UNIVERSAL_TIME_OFFSET ( 1, 0, .AHEAD. ) ;
#88 = APPROVAL_ROLE ( '' ) ;
#89 = CALENDAR_DATE ( 2021, 9, 12 ) ;
#90 = ORIENTED_EDGE ( 'NONE', *, *, #61, .F. ) ;
#91 = AXIS2_PLACEMENT_3D ( 'NONE', #102, #263, #262 ) ;
#92 = MANIFOLD_SOLID_BREP ( 'Corps-Déplacer/Copier1[1]', #131 ) ;
#93 = CC_DESIGN_PERSON_AND_ORGANIZATION_ASSIGNMENT ( #130, #47, ( #222 ) ) ;
#94 = FACE_OUTER_BOUND ( 'NONE', #176, .T. ) ;
#95 = CYLINDRICAL_SURFACE ( 'NONE', #126, 2.999999999999998224 ) ;
#96 = DIRECTION ( 'NONE',  ( 0.0000000000000000000, -1.000000000000000000, 0.0000000000000000000 ) ) ;
#97 = ADVANCED_FACE ( 'NONE', ( #21, #115 ), #197, .T. ) ;
#98 = DIRECTION ( 'NONE',  ( 3.491481338843133355E-15, -0.0000000000000000000, 1.000000000000000000 ) ) ;
#99 = DIRECTION ( 'NONE',  ( -8.551662891793917213E-31, -1.000000000000000000, -2.449293598294706414E-16 ) ) ;
#100 = AXIS2_PLACEMENT_3D ( 'NONE', #174, #152, #237 ) ;
#101 = ADVANCED_FACE ( 'NONE', ( #155, #94 ), #95, .T. ) ;
#102 = CARTESIAN_POINT ( 'NONE',  ( -2.585859969661490336E-30, 2.999999999999995559, -7.406197309129220442E-16 ) ) ;
#103 = CARTESIAN_POINT ( 'NONE',  ( 2.199633243471174014E-14, 0.0000000000000000000, 6.299999999999999822 ) ) ;
#104 = DATE_AND_TIME ( #161, #153 ) ;
#105 =( GEOMETRIC_REPRESENTATION_CONTEXT ( 3 ) GLOBAL_UNCERTAINTY_ASSIGNED_CONTEXT ( ( #206 ) ) GLOBAL_UNIT_ASSIGNED_CONTEXT ( ( #223, #26, #28 ) ) REPRESENTATION_CONTEXT ( 'NONE', 'WORKASPACE' ) );
#106 = VERTEX_POINT ( 'NONE', #185 ) ;
#107 = COORDINATED_UNIVERSAL_TIME_OFFSET ( 1, 0, .AHEAD. ) ;
#108 = CARTESIAN_POINT ( 'NONE',  ( 1.500000000000021982, 0.0000000000000000000, 6.299999999999994493 ) ) ;
#109 = EDGE_LOOP ( 'NONE', ( #17 ) ) ;
#110 = EDGE_LOOP ( 'NONE', ( #172 ) ) ;
#111 = CC_DESIGN_DATE_AND_TIME_ASSIGNMENT ( #104, #184, ( #170 ) ) ;
#112 = CIRCLE ( 'NONE', #39, 1.500000000000000222 ) ;
#113 = FACE_OUTER_BOUND ( 'NONE', #235, .T. ) ;
#114 = CARTESIAN_POINT ( 'NONE',  ( 0.0000000000000000000, 0.0000000000000000000, 0.0000000000000000000 ) ) ;
#115 = FACE_OUTER_BOUND ( 'NONE', #110, .T. ) ;
#116 = AXIS2_PLACEMENT_3D ( 'NONE', #118, #201, #56 ) ;
#117 = AXIS2_PLACEMENT_3D ( 'NONE', #83, #209, #122 ) ;
#118 = CARTESIAN_POINT ( 'NONE',  ( 8.415846993792388121E-14, 0.0000000000000000000, 24.10394379074897842 ) ) ;
#119 = PLANE ( 'NONE',  #15 ) ;
#120 = ADVANCED_FACE ( 'NONE', ( #137 ), #220, .F. ) ;
#121 = CIRCLE ( 'NONE', #8, 1.500000000000000000 ) ;
#122 = DIRECTION ( 'NONE',  ( 8.551662891793917213E-31, 1.000000000000000000, 2.449293598294706414E-16 ) ) ;
#123 = APPROVAL_DATE_TIME ( #226, #79 ) ;
#124 = APPLICATION_PROTOCOL_DEFINITION ( 'international standard', 'config_control_design', 1994, #192 ) ;
#125 = ADVANCED_FACE ( 'NONE', ( #81 ), #119, .F. ) ;
#126 = AXIS2_PLACEMENT_3D ( 'NONE', #156, #199, #96 ) ;
#127 = PRODUCT_DEFINITION_SHAPE ( 'NONE', 'NONE',  #170 ) ;
#128 = FACE_OUTER_BOUND ( 'NONE', #14, .T. ) ;
#129 = ORIENTED_EDGE ( 'NONE', *, *, #46, .T. ) ;
#130 = PERSON_AND_ORGANIZATION ( #214, #219 ) ;
#131 = CLOSED_SHELL ( 'NONE', ( #101, #139, #257, #3, #207, #120 ) ) ;
#132 = DATE_AND_TIME ( #234, #2 ) ;
#133 = ORIENTED_EDGE ( 'NONE', *, *, #36, .T. ) ;
#134 = EDGE_LOOP ( 'NONE', ( #167 ) ) ;
#135 = EDGE_CURVE ( 'NONE', #204, #204, #53, .T. ) ;
#136 = DIRECTION ( 'NONE',  ( 1.000000000000000000, 0.0000000000000000000, -3.505587024369797144E-15 ) ) ;
#137 = FACE_OUTER_BOUND ( 'NONE', #73, .T. ) ;
#138 = CONICAL_SURFACE ( 'NONE', #116, 6.199999999999998401, 0.2617993877991426355 ) ;
#139 = ADVANCED_FACE ( 'NONE', ( #245, #18 ), #44, .T. ) ;
#140 = ORIENTED_EDGE ( 'NONE', *, *, #46, .F. ) ;
#141 = DIRECTION ( 'NONE',  ( 3.491481338843133355E-15, -2.449293598294706414E-16, 1.000000000000000000 ) ) ;
#142 = PRODUCT_DEFINITION_FORMATION_WITH_SPECIFIED_SOURCE ( 'ANY', '', #222, .NOT_KNOWN. ) ;
#143 = DIRECTION ( 'NONE',  ( 1.000000000000000000, 0.0000000000000000000, 0.0000000000000000000 ) ) ;
#144 = APPROVAL ( #211, 'UNSPECIFIED' ) ;
#145 = CARTESIAN_POINT ( 'NONE',  ( 1.899365848330664293E-13, -3.000000000000012879, 54.39999999999999858 ) ) ;
#146 = DIRECTION ( 'NONE',  ( 3.491481338843133355E-15, -0.0000000000000000000, 1.000000000000000000 ) ) ;
#147 = APPLICATION_PROTOCOL_DEFINITION ( 'international standard', 'config_control_design', 1994, #173 ) ;
#148 = PERSON_AND_ORGANIZATION_ROLE ( 'creator' ) ;
#149 = PERSON_AND_ORGANIZATION_ROLE ( 'classification_officer' ) ;
#150 = EDGE_LOOP ( 'NONE', ( #140 ) ) ;
#151 = TOROIDAL_SURFACE ( 'NONE', #41, 3.500000000000000000, 2.000000000000000000 ) ;
#152 = DIRECTION ( 'NONE',  ( -3.491481338843133355E-15, 2.449293598294706414E-16, -1.000000000000000000 ) ) ;
#153 = LOCAL_TIME ( 13, 42, 21.00000000000000000, #227 ) ;
#154 = ORIENTED_EDGE ( 'NONE', *, *, #135, .F. ) ;
#155 = FACE_OUTER_BOUND ( 'NONE', #232, .T. ) ;
#156 = CARTESIAN_POINT ( 'NONE',  ( 1.920314736363723472E-13, -8.817456953860941711E-15, 55.00000000000000000 ) ) ;
#157 = CC_DESIGN_APPROVAL ( #79, ( #170 ) ) ;
#158 = DIRECTION ( 'NONE',  ( 3.491481338843133355E-15, -0.0000000000000000000, 1.000000000000000000 ) ) ;
#159 = VERTEX_POINT ( 'NONE', #145 ) ;
#160 = APPROVAL_PERSON_ORGANIZATION ( #31, #79, #231 ) ;
#161 = CALENDAR_DATE ( 2021, 9, 12 ) ;
#162 = VERTEX_POINT ( 'NONE', #108 ) ;
#163 = APPROVAL_STATUS ( 'not_yet_approved' ) ;
#164 = PLANE ( 'NONE',  #117 ) ;
#165 = CLOSED_SHELL ( 'NONE', ( #240, #71, #97, #125 ) ) ;
#166 = CC_DESIGN_APPROVAL ( #144, ( #62 ) ) ;
#167 = ORIENTED_EDGE ( 'NONE', *, *, #217, .F. ) ;
#168 = CALENDAR_DATE ( 2021, 9, 12 ) ;
#169 = SHAPE_DEFINITION_REPRESENTATION ( #127, #70 ) ;
#170 = PRODUCT_DEFINITION ( 'UNKNOWN', '', #142, #189 ) ;
#171 = PERSON_AND_ORGANIZATION ( #214, #219 ) ;
#172 = ORIENTED_EDGE ( 'NONE', *, *, #191, .F. ) ;
#173 = APPLICATION_CONTEXT ( 'configuration controlled 3d designs of mechanical parts and assemblies' ) ;
#174 = CARTESIAN_POINT ( 'NONE',  ( 1.899365848330664293E-13, -8.670499337963258271E-15, 54.39999999999999858 ) ) ;
#175 = ORIENTED_EDGE ( 'NONE', *, *, #217, .T. ) ;
#176 = EDGE_LOOP ( 'NONE', ( #256 ) ) ;
#177 = EDGE_LOOP ( 'NONE', ( #129 ) ) ;
#178 = EDGE_LOOP ( 'NONE', ( #154 ) ) ;
#179 = DIRECTION ( 'NONE',  ( 3.491481338843133355E-15, -0.0000000000000000000, 1.000000000000000000 ) ) ;
#180 = CIRCLE ( 'NONE', #213, 2.999999999999998224 ) ;
#181 = CC_DESIGN_SECURITY_CLASSIFICATION ( #62, ( #142 ) ) ;
#182 = EDGE_CURVE ( 'NONE', #106, #106, #67, .T. ) ;
#183 = PLANE ( 'NONE',  #91 ) ;
#184 = DATE_TIME_ROLE ( 'creation_date' ) ;
#185 = CARTESIAN_POINT ( 'NONE',  ( 1.200000000000000178, 0.0000000000000000000, -4.243987715236035248E-15 ) ) ;
#186 = CIRCLE ( 'NONE', #27, 3.000000000000004441 ) ;
#187 = PERSON_AND_ORGANIZATION ( #214, #219 ) ;
#188 = MANIFOLD_SOLID_BREP ( 'Corps-Déplacer/Copier1[2]', #165 ) ;
#189 = DESIGN_CONTEXT ( 'detailed design', #173, 'design' ) ;
#190 = FACE_OUTER_BOUND ( 'NONE', #51, .T. ) ;
#191 = EDGE_CURVE ( 'NONE', #43, #43, #121, .T. ) ;
#192 = APPLICATION_CONTEXT ( 'configuration controlled 3d designs of mechanical parts and assemblies' ) ;
#193 = CARTESIAN_POINT ( 'NONE',  ( 1.920314736363723472E-13, -2.400000000000013234, 55.00000000000000000 ) ) ;
#194 = CIRCLE ( 'NONE', #76, 2.400000000000004352 ) ;
#195 = APPROVAL ( #163, 'UNSPECIFIED' ) ;
#196 = ORIENTED_EDGE ( 'NONE', *, *, #182, .T. ) ;
#197 = CYLINDRICAL_SURFACE ( 'NONE', #208, 1.500000000000000000 ) ;
#198 = CARTESIAN_POINT ( 'NONE',  ( 1.899365848330664293E-13, -8.670499337963258271E-15, 54.39999999999999858 ) ) ;
#199 = DIRECTION ( 'NONE',  ( 3.491481338843133355E-15, -2.449293598294706414E-16, 1.000000000000000000 ) ) ;
#200 = DIRECTION ( 'NONE',  ( 3.491481338843133355E-15, -2.449293598294706414E-16, 1.000000000000000000 ) ) ;
#201 = DIRECTION ( 'NONE',  ( 3.491481338843133355E-15, -0.0000000000000000000, 1.000000000000000000 ) ) ;
#202 = APPROVAL_DATE_TIME ( #10, #195 ) ;
#203 = SECURITY_CLASSIFICATION_LEVEL ( 'unclassified' ) ;
#204 = VERTEX_POINT ( 'NONE', #29 ) ;
#205 = PERSON_AND_ORGANIZATION ( #214, #219 ) ;
#206 = UNCERTAINTY_MEASURE_WITH_UNIT (LENGTH_MEASURE( 1.000000000000000082E-05 ), #223, 'distance_accuracy_value', 'NONE');
#207 = ADVANCED_FACE ( 'NONE', ( #22, #1 ), #151, .F. ) ;
#208 = AXIS2_PLACEMENT_3D ( 'NONE', #114, #98, #80 ) ;
#209 = DIRECTION ( 'NONE',  ( -3.491481338843133355E-15, 2.449293598294706414E-16, -1.000000000000000000 ) ) ;
#210 = APPROVAL_STATUS ( 'not_yet_approved' ) ;
#211 = APPROVAL_STATUS ( 'not_yet_approved' ) ;
#212 = CC_DESIGN_PERSON_AND_ORGANIZATION_ASSIGNMENT ( #230, #149, ( #62 ) ) ;
#213 = AXIS2_PLACEMENT_3D ( 'NONE', #259, #37, #254 ) ;
#214 = PERSON ( 'UNSPECIFIED', 'UNSPECIFIED', 'UNSPECIFIED', ('UNSPECIFIED'), ('UNSPECIFIED'), ('UNSPECIFIED') ) ;
#215 = CARTESIAN_POINT ( 'NONE',  ( 1.047444401652940007E-15, 0.0000000000000000000, 0.3000000000000000444 ) ) ;
#216 = EDGE_LOOP ( 'NONE', ( #133 ) ) ;
#217 = EDGE_CURVE ( 'NONE', #60, #60, #194, .T. ) ;
#218 = TOROIDAL_SURFACE ( 'NONE', #72, 1.200000000000000178, 0.3000000000000001554 ) ;
#219 = ORGANIZATION ( 'UNSPECIFIED', 'UNSPECIFIED', '' ) ;
#220 = PLANE ( 'NONE',  #242 ) ;
#221 = DIRECTION ( 'NONE',  ( 0.0000000000000000000, -1.000000000000000000, 0.0000000000000000000 ) ) ;
#222 = PRODUCT ( '392820', '392820', '', ( #82 ) ) ;
#223 =( LENGTH_UNIT ( ) NAMED_UNIT ( * ) SI_UNIT ( .MILLI., .METRE. ) );
#224 = PRODUCT_RELATED_PRODUCT_CATEGORY ( 'detail', '', ( #222 ) ) ;
#225 = AXIS2_PLACEMENT_3D ( 'NONE', #78, #258, #19 ) ;
#226 = DATE_AND_TIME ( #168, #255 ) ;
#227 = COORDINATED_UNIVERSAL_TIME_OFFSET ( 1, 0, .AHEAD. ) ;
#228 = VERTEX_POINT ( 'NONE', #84 ) ;
#229 = DIRECTION ( 'NONE',  ( 1.000000000000000000, 0.0000000000000000000, -3.469446951953614189E-15 ) ) ;
#230 = PERSON_AND_ORGANIZATION ( #214, #219 ) ;
#231 = APPROVAL_ROLE ( '' ) ;
#232 = EDGE_LOOP ( 'NONE', ( #90 ) ) ;
#233 = ORIENTED_EDGE ( 'NONE', *, *, #191, .T. ) ;
#234 = CALENDAR_DATE ( 2021, 9, 12 ) ;
#235 = EDGE_LOOP ( 'NONE', ( #196 ) ) ;
#236 = AXIS2_PLACEMENT_3D ( 'NONE', #54, #146, #5 ) ;
#237 = DIRECTION ( 'NONE',  ( 0.0000000000000000000, 1.000000000000000000, 0.0000000000000000000 ) ) ;
#238 = PERSON_AND_ORGANIZATION ( #214, #219 ) ;
#239 = CARTESIAN_POINT ( 'NONE',  ( 1.047444401652940007E-15, 0.0000000000000000000, 0.3000000000000000444 ) ) ;
#240 = ADVANCED_FACE ( 'NONE', ( #190 ), #183, .F. ) ;
#241 = DIRECTION ( 'NONE',  ( 1.000000000000000000, 0.0000000000000000000, -3.491481338843133355E-15 ) ) ;
#242 = AXIS2_PLACEMENT_3D ( 'NONE', #40, #200, #99 ) ;
#243 = LOCAL_TIME ( 13, 42, 21.00000000000000000, #107 ) ;
#244 = CARTESIAN_POINT ( 'NONE',  ( 2.380365616693699810E-14, 0.0000000000000000000, 6.817638090205028867 ) ) ;
#245 = FACE_BOUND ( 'NONE', #134, .T. ) ;
#246 = DIRECTION ( 'NONE',  ( 3.491481338843133355E-15, -0.0000000000000000000, 1.000000000000000000 ) ) ;
#247 = ORIENTED_EDGE ( 'NONE', *, *, #135, .T. ) ;
#248 = CARTESIAN_POINT ( 'NONE',  ( 1.500000000000021982, 0.0000000000000000000, 6.299999999999994493 ) ) ;
#249 = PERSON_AND_ORGANIZATION_ROLE ( 'design_supplier' ) ;
#250 = DIRECTION ( 'NONE',  ( 3.491481338843133355E-15, -0.0000000000000000000, 1.000000000000000000 ) ) ;
#251 = AXIS2_PLACEMENT_3D ( 'NONE', #244, #158, #261 ) ;
#252 = COORDINATED_UNIVERSAL_TIME_OFFSET ( 1, 0, .AHEAD. ) ;
#253 = APPROVAL_PERSON_ORGANIZATION ( #187, #195, #65 ) ;
#254 = DIRECTION ( 'NONE',  ( 1.000000000000000000, 0.0000000000000000000, -3.469446951953616161E-15 ) ) ;
#255 = LOCAL_TIME ( 13, 42, 21.00000000000000000, #87 ) ;
#256 = ORIENTED_EDGE ( 'NONE', *, *, #74, .F. ) ;
#257 = ADVANCED_FACE ( 'NONE', ( #128 ), #164, .F. ) ;
#258 = DIRECTION ( 'NONE',  ( 3.491481338843133355E-15, -0.0000000000000000000, 1.000000000000000000 ) ) ;
#259 = CARTESIAN_POINT ( 'NONE',  ( 4.246123553715096701E-14, 0.0000000000000000000, 12.16138120652824739 ) ) ;
#260 = CC_DESIGN_PERSON_AND_ORGANIZATION_ASSIGNMENT ( #48, #249, ( #142 ) ) ;
#261 = DIRECTION ( 'NONE',  ( 1.000000000000000000, 0.0000000000000000000, -3.318672264959130233E-15 ) ) ;
#262 = DIRECTION ( 'NONE',  ( 1.723906646440996010E-30, -1.000000000000000000, 4.937464872752820530E-16 ) ) ;
#263 = DIRECTION ( 'NONE',  ( 3.491481338843133355E-15, 4.937464872752820530E-16, 1.000000000000000000 ) ) ;
ENDSEC;
END-ISO-10303-21;
