ISO-10303-21;
HEADER;
FILE_DESCRIPTION (( 'STEP AP203' ),
    '1' );
FILE_NAME ('392817.step',
    '2021-12-09T12:42:19',
    ( '' ),
    ( '' ),
    'SwSTEP 2.0',
    'SolidWorks 2019',
    '' );
FILE_SCHEMA (( 'CONFIG_CONTROL_DESIGN' ));
ENDSEC;

DATA;
#1 = DATE_AND_TIME ( #57, #99 ) ;
#2 = FACE_OUTER_BOUND ( 'NONE', #69, .T. ) ;
#3 = DIRECTION ( 'NONE',  ( 3.491481338843133355E-15, 6.331192886158017940E-16, 1.000000000000000000 ) ) ;
#4 = PERSON_AND_ORGANIZATION_ROLE ( 'creator' ) ;
#5 = CARTESIAN_POINT ( 'NONE',  ( 1.326762908760390423E-13, -2.449293598294670423E-16, 38.00000000000000000 ) ) ;
#6 = VERTEX_POINT ( 'NONE', #234 ) ;
#7 = ADVANCED_FACE ( 'NONE', ( #171 ), #77, .F. ) ;
#8 = VERTEX_POINT ( 'NONE', #65 ) ;
#9 = VERTEX_POINT ( 'NONE', #153 ) ;
#10 = EDGE_CURVE ( 'NONE', #8, #8, #24, .T. ) ;
#11 = PERSON_AND_ORGANIZATION ( #74, #200 ) ;
#12 = AXIS2_PLACEMENT_3D ( 'NONE', #79, #62, #53 ) ;
#13 = ORIENTED_EDGE ( 'NONE', *, *, #131, .F. ) ;
#14 = FACE_OUTER_BOUND ( 'NONE', #239, .T. ) ;
#15 = FACE_OUTER_BOUND ( 'NONE', #220, .T. ) ;
#16 = APPROVAL_DATE_TIME ( #230, #182 ) ;
#17 = DIRECTION ( 'NONE',  ( 0.0000000000000000000, -1.000000000000000000, 0.0000000000000000000 ) ) ;
#18 = DIRECTION ( 'NONE',  ( 1.000000000000000000, 0.0000000000000000000, -3.469446951953613400E-15 ) ) ;
#19 = PERSON_AND_ORGANIZATION ( #74, #200 ) ;
#20 = FACE_BOUND ( 'NONE', #52, .T. ) ;
#21 = DATE_AND_TIME ( #190, #191 ) ;
#22 = DIRECTION ( 'NONE',  ( 3.491481338843133355E-15, -0.0000000000000000000, 1.000000000000000000 ) ) ;
#23 = CARTESIAN_POINT ( 'NONE',  ( 1.850485109586860678E-14, 0.0000000000000000000, 5.299999999999999822 ) ) ;
#24 = CIRCLE ( 'NONE', #197, 1.599999999999991429 ) ;
#25 = APPROVAL_PERSON_ORGANIZATION ( #222, #232, #120 ) ;
#26 = ADVANCED_FACE ( 'NONE', ( #20, #180 ), #228, .T. ) ;
#27 = ORIENTED_EDGE ( 'NONE', *, *, #85, .F. ) ;
#28 =( LENGTH_UNIT ( ) NAMED_UNIT ( * ) SI_UNIT ( .MILLI., .METRE. ) );
#29 = ADVANCED_FACE ( 'NONE', ( #223, #247 ), #109, .T. ) ;
#30 = ORIENTED_EDGE ( 'NONE', *, *, #238, .F. ) ;
#31 = APPLICATION_CONTEXT ( 'configuration controlled 3d designs of mechanical parts and assemblies' ) ;
#32 = APPROVAL_STATUS ( 'not_yet_approved' ) ;
#33 = AXIS2_PLACEMENT_3D ( 'NONE', #23, #43, #184 ) ;
#34 = DIRECTION ( 'NONE',  ( 1.000000000000000000, 0.0000000000000000000, -3.440773836648213432E-15 ) ) ;
#35 = PERSON_AND_ORGANIZATION ( #74, #200 ) ;
#36 = DIRECTION ( 'NONE',  ( 3.491481338843133355E-15, -0.0000000000000000000, 1.000000000000000000 ) ) ;
#37 = PLANE ( 'NONE',  #132 ) ;
#38 = CALENDAR_DATE ( 2021, 9, 12 ) ;
#39 = CARTESIAN_POINT ( 'NONE',  ( 1.850485109586860678E-14, 0.0000000000000000000, 5.299999999999999822 ) ) ;
#40 =( GEOMETRIC_REPRESENTATION_CONTEXT ( 3 ) GLOBAL_UNCERTAINTY_ASSIGNED_CONTEXT ( ( #186 ) ) GLOBAL_UNIT_ASSIGNED_CONTEXT ( ( #28, #115, #49 ) ) REPRESENTATION_CONTEXT ( 'NONE', 'WORKASPACE' ) );
#41 = DIRECTION ( 'NONE',  ( 1.000000000000000000, 0.0000000000000000000, -3.469446951953629177E-15 ) ) ;
#42 = CC_DESIGN_DATE_AND_TIME_ASSIGNMENT ( #1, #207, ( #172 ) ) ;
#43 = DIRECTION ( 'NONE',  ( 3.491481338843133355E-15, -0.0000000000000000000, 1.000000000000000000 ) ) ;
#44 = PRODUCT_DEFINITION_FORMATION_WITH_SPECIFIED_SOURCE ( 'ANY', '', #67, .NOT_KNOWN. ) ;
#45 = DIRECTION ( 'NONE',  ( 1.000000000000000000, 0.0000000000000000000, -3.491481338843133355E-15 ) ) ;
#46 = AXIS2_PLACEMENT_3D ( 'NONE', #143, #206, #125 ) ;
#47 = EDGE_CURVE ( 'NONE', #6, #6, #147, .T. ) ;
#48 = CARTESIAN_POINT ( 'NONE',  ( 1.318148347421880251, 0.0000000000000000000, 5.817638090205023538 ) ) ;
#49 =( NAMED_UNIT ( * ) SI_UNIT ( $, .STERADIAN. ) SOLID_ANGLE_UNIT ( ) );
#50 = CIRCLE ( 'NONE', #60, 1.318148347421859823 ) ;
#51 = EDGE_LOOP ( 'NONE', ( #144 ) ) ;
#52 = EDGE_LOOP ( 'NONE', ( #156 ) ) ;
#53 = DIRECTION ( 'NONE',  ( 1.000000000000000000, 0.0000000000000000000, -3.491481338843133355E-15 ) ) ;
#54 = CC_DESIGN_APPROVAL ( #261, ( #172 ) ) ;
#55 = ADVANCED_FACE ( 'NONE', ( #14 ), #37, .F. ) ;
#56 = DIRECTION ( 'NONE',  ( 3.491481338843133355E-15, -0.0000000000000000000, 1.000000000000000000 ) ) ;
#57 = CALENDAR_DATE ( 2021, 9, 12 ) ;
#58 = DESIGN_CONTEXT ( 'detailed design', #157, 'design' ) ;
#59 = CARTESIAN_POINT ( 'NONE',  ( 1.312796983405018394E-13, -2.008870162271045115E-16, 37.60000000000000853 ) ) ;
#60 = AXIS2_PLACEMENT_3D ( 'NONE', #263, #76, #163 ) ;
#61 = CARTESIAN_POINT ( 'NONE',  ( 1.326762908760390423E-13, -2.449293598294670423E-16, 38.00000000000000000 ) ) ;
#62 = DIRECTION ( 'NONE',  ( 3.491481338843133355E-15, -0.0000000000000000000, 1.000000000000000000 ) ) ;
#63 = CLOSED_SHELL ( 'NONE', ( #55, #240, #73, #7 ) ) ;
#64 = EDGE_CURVE ( 'NONE', #9, #9, #253, .T. ) ;
#65 = CARTESIAN_POINT ( 'NONE',  ( 1.326762908760390423E-13, -1.599999999999991651, 38.00000000000000000 ) ) ;
#66 = AXIS2_PLACEMENT_3D ( 'NONE', #183, #208, #41 ) ;
#67 = PRODUCT ( '392817', '392817', '', ( #221 ) ) ;
#68 = DIRECTION ( 'NONE',  ( 0.0000000000000000000, 0.0000000000000000000, 1.000000000000000000 ) ) ;
#69 = EDGE_LOOP ( 'NONE', ( #113 ) ) ;
#70 = ADVANCED_FACE ( 'NONE', ( #98, #213 ), #215, .F. ) ;
#71 = AXIS2_PLACEMENT_3D ( 'NONE', #128, #94, #75 ) ;
#72 = ORIENTED_EDGE ( 'NONE', *, *, #64, .F. ) ;
#73 = ADVANCED_FACE ( 'NONE', ( #243, #211 ), #104, .T. ) ;
#74 = PERSON ( 'UNSPECIFIED', 'UNSPECIFIED', 'UNSPECIFIED', ('UNSPECIFIED'), ('UNSPECIFIED'), ('UNSPECIFIED') ) ;
#75 = DIRECTION ( 'NONE',  ( -2.210524181463711634E-30, 1.000000000000000000, -6.331192886158017940E-16 ) ) ;
#76 = DIRECTION ( 'NONE',  ( 3.491481338843133355E-15, -0.0000000000000000000, 1.000000000000000000 ) ) ;
#77 = PLANE ( 'NONE',  #71 ) ;
#78 = PERSON_AND_ORGANIZATION ( #74, #200 ) ;
#79 = CARTESIAN_POINT ( 'NONE',  ( 0.0000000000000000000, 0.0000000000000000000, 0.0000000000000000000 ) ) ;
#80 = APPROVAL_STATUS ( 'not_yet_approved' ) ;
#81 = ORIENTED_EDGE ( 'NONE', *, *, #85, .T. ) ;
#82 = COORDINATED_UNIVERSAL_TIME_OFFSET ( 1, 0, .AHEAD. ) ;
#83 = CARTESIAN_POINT ( 'NONE',  ( 6.982962677686267697E-16, 0.0000000000000000000, 0.2000000000000000389 ) ) ;
#84 = EDGE_CURVE ( 'NONE', #88, #88, #169, .T. ) ;
#85 = EDGE_CURVE ( 'NONE', #97, #97, #235, .T. ) ;
#86 = AXIS2_PLACEMENT_3D ( 'NONE', #83, #195, #45 ) ;
#87 = EDGE_LOOP ( 'NONE', ( #159 ) ) ;
#88 = VERTEX_POINT ( 'NONE', #90 ) ;
#89 = ORIENTED_EDGE ( 'NONE', *, *, #64, .T. ) ;
#90 = CARTESIAN_POINT ( 'NONE',  ( 1.312796983405018394E-13, -1.999999999999991784, 37.60000000000000853 ) ) ;
#91 = CC_DESIGN_APPROVAL ( #182, ( #44 ) ) ;
#92 = ORIENTED_EDGE ( 'NONE', *, *, #10, .T. ) ;
#93 = ADVANCED_FACE ( 'NONE', ( #185, #96 ), #189, .T. ) ;
#94 = DIRECTION ( 'NONE',  ( -3.491481338843133355E-15, -6.331192886158017940E-16, -1.000000000000000000 ) ) ;
#95 = COORDINATED_UNIVERSAL_TIME_OFFSET ( 1, 0, .AHEAD. ) ;
#96 = FACE_OUTER_BOUND ( 'NONE', #257, .T. ) ;
#97 = VERTEX_POINT ( 'NONE', #101 ) ;
#98 = FACE_OUTER_BOUND ( 'NONE', #258, .T. ) ;
#99 = LOCAL_TIME ( 13, 42, 19.00000000000000000, #82 ) ;
#100 = APPROVAL_ROLE ( '' ) ;
#101 = CARTESIAN_POINT ( 'NONE',  ( 1.050000000000000044, 0.0000000000000000000, -3.638950351473152412E-15 ) ) ;
#102 = DIRECTION ( 'NONE',  ( 2.210524181463711634E-30, -1.000000000000000000, 6.331192886158017940E-16 ) ) ;
#103 = DATE_TIME_ROLE ( 'creation_date' ) ;
#104 = CYLINDRICAL_SURFACE ( 'NONE', #12, 1.250000000000000222 ) ;
#105 = APPROVAL_DATE_TIME ( #226, #261 ) ;
#106 = CC_DESIGN_APPROVAL ( #232, ( #216 ) ) ;
#107 = AXIS2_PLACEMENT_3D ( 'NONE', #59, #149, #167 ) ;
#108 = PLANE ( 'NONE',  #151 ) ;
#109 = CONICAL_SURFACE ( 'NONE', #219, 6.049999999999998046, 0.2617993877991425800 ) ;
#110 = CARTESIAN_POINT ( 'NONE',  ( 1.326762908760390423E-13, -2.449293598294670423E-16, 38.00000000000000000 ) ) ;
#111 = CC_DESIGN_PERSON_AND_ORGANIZATION_ASSIGNMENT ( #19, #242, ( #44 ) ) ;
#112 = TOROIDAL_SURFACE ( 'NONE', #86, 1.050000000000000044, 0.2000000000000000389 ) ;
#113 = ORIENTED_EDGE ( 'NONE', *, *, #47, .F. ) ;
#114 = CARTESIAN_POINT ( 'NONE',  ( 1.250000000000018652, 0.0000000000000000000, 5.299999999999995381 ) ) ;
#115 =( NAMED_UNIT ( * ) PLANE_ANGLE_UNIT ( ) SI_UNIT ( $, .RADIAN. ) );
#116 = ORIENTED_EDGE ( 'NONE', *, *, #47, .T. ) ;
#117 = ORIENTED_EDGE ( 'NONE', *, *, #238, .T. ) ;
#118 = PRODUCT_DEFINITION_SHAPE ( 'NONE', 'NONE',  #216 ) ;
#119 = ORIENTED_EDGE ( 'NONE', *, *, #84, .F. ) ;
#120 = APPROVAL_ROLE ( '' ) ;
#121 = EDGE_LOOP ( 'NONE', ( #117 ) ) ;
#122 = APPROVAL_STATUS ( 'not_yet_approved' ) ;
#123 = DIRECTION ( 'NONE',  ( 3.491481338843133355E-15, -1.101058590059087428E-16, 1.000000000000000000 ) ) ;
#124 = COORDINATED_UNIVERSAL_TIME_OFFSET ( 1, 0, .AHEAD. ) ;
#125 = DIRECTION ( 'NONE',  ( 0.0000000000000000000, -1.000000000000000000, 0.0000000000000000000 ) ) ;
#126 = DIRECTION ( 'NONE',  ( 1.000000000000000000, 0.0000000000000000000, -3.491481338843132961E-15 ) ) ;
#127 = APPROVAL_DATE_TIME ( #21, #232 ) ;
#128 = CARTESIAN_POINT ( 'NONE',  ( 1.850485109586860678E-14, 3.355532229663749134E-15, 5.299999999999999822 ) ) ;
#129 = PERSON_AND_ORGANIZATION ( #74, #200 ) ;
#130 = PLANE ( 'NONE',  #134 ) ;
#131 = EDGE_CURVE ( 'NONE', #178, #178, #50, .T. ) ;
#132 = AXIS2_PLACEMENT_3D ( 'NONE', #203, #3, #102 ) ;
#133 = DIRECTION ( 'NONE',  ( -3.491481338843133355E-15, 1.101058590059087428E-16, -1.000000000000000000 ) ) ;
#134 = AXIS2_PLACEMENT_3D ( 'NONE', #150, #214, #231 ) ;
#135 = CC_DESIGN_PERSON_AND_ORGANIZATION_ASSIGNMENT ( #246, #204, ( #172 ) ) ;
#136 = ORIENTED_EDGE ( 'NONE', *, *, #152, .T. ) ;
#137 = APPLICATION_PROTOCOL_DEFINITION ( 'international standard', 'config_control_design', 1994, #31 ) ;
#138 = EDGE_LOOP ( 'NONE', ( #241 ) ) ;
#139 = APPLICATION_PROTOCOL_DEFINITION ( 'international standard', 'config_control_design', 1994, #157 ) ;
#140 = EDGE_LOOP ( 'NONE', ( #119 ) ) ;
#141 = ADVANCED_BREP_SHAPE_REPRESENTATION ( '392817', ( #175, #262, #148 ), #40 ) ;
#142 = SECURITY_CLASSIFICATION_LEVEL ( 'unclassified' ) ;
#143 = CARTESIAN_POINT ( 'NONE',  ( 1.312796983405018394E-13, -2.008870162271045115E-16, 37.60000000000000853 ) ) ;
#144 = ORIENTED_EDGE ( 'NONE', *, *, #152, .F. ) ;
#145 = CC_DESIGN_PERSON_AND_ORGANIZATION_ASSIGNMENT ( #11, #158, ( #67 ) ) ;
#146 = CARTESIAN_POINT ( 'NONE',  ( 1.850485109586860678E-14, 0.0000000000000000000, 5.299999999999999822 ) ) ;
#147 = CIRCLE ( 'NONE', #192, 1.250000000000000222 ) ;
#148 = AXIS2_PLACEMENT_3D ( 'NONE', #256, #68, #237 ) ;
#149 = DIRECTION ( 'NONE',  ( -3.491481338843133355E-15, 1.101058590059087428E-16, -1.000000000000000000 ) ) ;
#150 = CARTESIAN_POINT ( 'NONE',  ( 1.850485109586860363E-14, 3.355532229663748739E-15, 5.299999999999998934 ) ) ;
#151 = AXIS2_PLACEMENT_3D ( 'NONE', #110, #133, #173 ) ;
#152 = EDGE_CURVE ( 'NONE', #260, #260, #209, .T. ) ;
#153 = CARTESIAN_POINT ( 'NONE',  ( 2.000000000000020428, 0.0000000000000000000, 8.362343100851477473 ) ) ;
#154 = CIRCLE ( 'NONE', #33, 1.250000000000000222 ) ;
#155 = CC_DESIGN_DATE_AND_TIME_ASSIGNMENT ( #161, #103, ( #216 ) ) ;
#156 = ORIENTED_EDGE ( 'NONE', *, *, #10, .F. ) ;
#157 = APPLICATION_CONTEXT ( 'configuration controlled 3d designs of mechanical parts and assemblies' ) ;
#158 = PERSON_AND_ORGANIZATION_ROLE ( 'design_owner' ) ;
#159 = ORIENTED_EDGE ( 'NONE', *, *, #84, .T. ) ;
#160 = CARTESIAN_POINT ( 'NONE',  ( 8.197002717410488802E-14, 0.0000000000000000000, 23.47714887150587870 ) ) ;
#161 = DATE_AND_TIME ( #38, #198 ) ;
#162 = AXIS2_PLACEMENT_3D ( 'NONE', #187, #36, #249 ) ;
#163 = DIRECTION ( 'NONE',  ( 1.000000000000000000, 0.0000000000000000000, -3.290076339604943465E-15 ) ) ;
#164 = PRODUCT_RELATED_PRODUCT_CATEGORY ( 'detail', '', ( #67 ) ) ;
#165 = DIRECTION ( 'NONE',  ( 3.491481338843133355E-15, -1.101058590059087428E-16, 1.000000000000000000 ) ) ;
#166 = APPROVAL_ROLE ( '' ) ;
#167 = DIRECTION ( 'NONE',  ( 0.0000000000000000000, 1.000000000000000000, 0.0000000000000000000 ) ) ;
#168 = COORDINATED_UNIVERSAL_TIME_OFFSET ( 1, 0, .AHEAD. ) ;
#169 = CIRCLE ( 'NONE', #46, 1.999999999999991784 ) ;
#170 = CC_DESIGN_PERSON_AND_ORGANIZATION_ASSIGNMENT ( #212, #4, ( #44 ) ) ;
#171 = FACE_OUTER_BOUND ( 'NONE', #121, .T. ) ;
#172 = SECURITY_CLASSIFICATION ( '', '', #142 ) ;
#173 = DIRECTION ( 'NONE',  ( 3.844325520164235209E-31, 1.000000000000000000, 1.101058590059087428E-16 ) ) ;
#174 = FACE_OUTER_BOUND ( 'NONE', #179, .T. ) ;
#175 = MANIFOLD_SOLID_BREP ( 'Corps-Déplacer/Copier1[1]', #194 ) ;
#176 = APPROVAL_PERSON_ORGANIZATION ( #129, #182, #166 ) ;
#177 = VERTEX_POINT ( 'NONE', #114 ) ;
#178 = VERTEX_POINT ( 'NONE', #48 ) ;
#179 = EDGE_LOOP ( 'NONE', ( #92 ) ) ;
#180 = FACE_OUTER_BOUND ( 'NONE', #87, .T. ) ;
#181 = CALENDAR_DATE ( 2021, 9, 12 ) ;
#182 = APPROVAL ( #122, 'UNSPECIFIED' ) ;
#183 = CARTESIAN_POINT ( 'NONE',  ( 2.919696488562658053E-14, 0.0000000000000000000, 8.362343100851484579 ) ) ;
#184 = DIRECTION ( 'NONE',  ( 1.000000000000000000, 0.0000000000000000000, -3.469446951953613400E-15 ) ) ;
#185 = FACE_OUTER_BOUND ( 'NONE', #140, .T. ) ;
#186 = UNCERTAINTY_MEASURE_WITH_UNIT (LENGTH_MEASURE( 1.000000000000000082E-05 ), #28, 'distance_accuracy_value', 'NONE');
#187 = CARTESIAN_POINT ( 'NONE',  ( 9.463679131915806782E-32, 0.0000000000000000000, 2.710505431213761085E-17 ) ) ;
#188 = CALENDAR_DATE ( 2021, 9, 12 ) ;
#189 = CYLINDRICAL_SURFACE ( 'NONE', #224, 1.999999999999991340 ) ;
#190 = CALENDAR_DATE ( 2021, 9, 12 ) ;
#191 = LOCAL_TIME ( 13, 42, 19.00000000000000000, #202 ) ;
#192 = AXIS2_PLACEMENT_3D ( 'NONE', #146, #229, #18 ) ;
#193 = ADVANCED_FACE ( 'NONE', ( #2 ), #130, .F. ) ;
#194 = CLOSED_SHELL ( 'NONE', ( #93, #26, #255, #29, #70, #193 ) ) ;
#195 = DIRECTION ( 'NONE',  ( 3.491481338843133355E-15, -0.0000000000000000000, 1.000000000000000000 ) ) ;
#196 = EDGE_LOOP ( 'NONE', ( #30 ) ) ;
#197 = AXIS2_PLACEMENT_3D ( 'NONE', #61, #165, #225 ) ;
#198 = LOCAL_TIME ( 13, 42, 19.00000000000000000, #124 ) ;
#199 = EDGE_LOOP ( 'NONE', ( #89 ) ) ;
#200 = ORGANIZATION ( 'UNSPECIFIED', 'UNSPECIFIED', '' ) ;
#201 = AXIS2_PLACEMENT_3D ( 'NONE', #245, #56, #227 ) ;
#202 = COORDINATED_UNIVERSAL_TIME_OFFSET ( 1, 0, .AHEAD. ) ;
#203 = CARTESIAN_POINT ( 'NONE',  ( -2.210524181463702526E-30, 1.999999999999991340, -6.331192886157991316E-16 ) ) ;
#204 = PERSON_AND_ORGANIZATION_ROLE ( 'classification_officer' ) ;
#205 = CC_DESIGN_PERSON_AND_ORGANIZATION_ASSIGNMENT ( #78, #244, ( #216 ) ) ;
#206 = DIRECTION ( 'NONE',  ( 3.491481338843133355E-15, -1.101058590059087428E-16, 1.000000000000000000 ) ) ;
#207 = DATE_TIME_ROLE ( 'classification_date' ) ;
#208 = DIRECTION ( 'NONE',  ( -3.491481338843133355E-15, 0.0000000000000000000, -1.000000000000000000 ) ) ;
#209 = CIRCLE ( 'NONE', #201, 1.250000000000000000 ) ;
#210 = LOCAL_TIME ( 13, 42, 19.00000000000000000, #168 ) ;
#211 = FACE_OUTER_BOUND ( 'NONE', #196, .T. ) ;
#212 = PERSON_AND_ORGANIZATION ( #74, #200 ) ;
#213 = FACE_OUTER_BOUND ( 'NONE', #236, .T. ) ;
#214 = DIRECTION ( 'NONE',  ( 3.491481338843133355E-15, -1.101058590059087428E-16, 1.000000000000000000 ) ) ;
#215 = TOROIDAL_SURFACE ( 'NONE', #250, 3.250000000000000444, 2.000000000000000000 ) ;
#216 = PRODUCT_DEFINITION ( 'UNKNOWN', '', #44, #58 ) ;
#217 = CARTESIAN_POINT ( 'NONE',  ( 1.250000000000000666, 0.0000000000000000000, 0.1999999999999956535 ) ) ;
#218 = EDGE_LOOP ( 'NONE', ( #136 ) ) ;
#219 = AXIS2_PLACEMENT_3D ( 'NONE', #160, #252, #34 ) ;
#220 = EDGE_LOOP ( 'NONE', ( #81 ) ) ;
#221 = MECHANICAL_CONTEXT ( 'NONE', #31, 'mechanical' ) ;
#222 = PERSON_AND_ORGANIZATION ( #74, #200 ) ;
#223 = FACE_BOUND ( 'NONE', #138, .T. ) ;
#224 = AXIS2_PLACEMENT_3D ( 'NONE', #5, #123, #17 ) ;
#225 = DIRECTION ( 'NONE',  ( 0.0000000000000000000, -1.000000000000000000, 0.0000000000000000000 ) ) ;
#226 = DATE_AND_TIME ( #181, #259 ) ;
#227 = DIRECTION ( 'NONE',  ( 1.000000000000000000, 0.0000000000000000000, -3.491130995403324278E-15 ) ) ;
#228 = CONICAL_SURFACE ( 'NONE', #107, 1.999999999999991340, 0.7853981633974599363 ) ;
#229 = DIRECTION ( 'NONE',  ( 3.491481338843133355E-15, -0.0000000000000000000, 1.000000000000000000 ) ) ;
#230 = DATE_AND_TIME ( #188, #210 ) ;
#231 = DIRECTION ( 'NONE',  ( -3.844325520164235209E-31, -1.000000000000000000, -1.101058590059087428E-16 ) ) ;
#232 = APPROVAL ( #32, 'UNSPECIFIED' ) ;
#233 = CC_DESIGN_SECURITY_CLASSIFICATION ( #172, ( #44 ) ) ;
#234 = CARTESIAN_POINT ( 'NONE',  ( 1.250000000000018652, 0.0000000000000000000, 5.299999999999995381 ) ) ;
#235 = CIRCLE ( 'NONE', #162, 1.050000000000000044 ) ;
#236 = EDGE_LOOP ( 'NONE', ( #13 ) ) ;
#237 = DIRECTION ( 'NONE',  ( 1.000000000000000000, 0.0000000000000000000, 0.0000000000000000000 ) ) ;
#238 = EDGE_CURVE ( 'NONE', #177, #177, #154, .T. ) ;
#239 = EDGE_LOOP ( 'NONE', ( #27 ) ) ;
#240 = ADVANCED_FACE ( 'NONE', ( #15, #248 ), #112, .T. ) ;
#241 = ORIENTED_EDGE ( 'NONE', *, *, #131, .T. ) ;
#242 = PERSON_AND_ORGANIZATION_ROLE ( 'design_supplier' ) ;
#243 = FACE_OUTER_BOUND ( 'NONE', #218, .T. ) ;
#244 = PERSON_AND_ORGANIZATION_ROLE ( 'creator' ) ;
#245 = CARTESIAN_POINT ( 'NONE',  ( 6.982962677686266711E-16, 0.0000000000000000000, 0.2000000000000000111 ) ) ;
#246 = PERSON_AND_ORGANIZATION ( #74, #200 ) ;
#247 = FACE_OUTER_BOUND ( 'NONE', #199, .T. ) ;
#248 = FACE_OUTER_BOUND ( 'NONE', #51, .T. ) ;
#249 = DIRECTION ( 'NONE',  ( 1.000000000000000000, 0.0000000000000000000, -3.491481338843133355E-15 ) ) ;
#250 = AXIS2_PLACEMENT_3D ( 'NONE', #39, #22, #126 ) ;
#251 = SHAPE_DEFINITION_REPRESENTATION ( #118, #141 ) ;
#252 = DIRECTION ( 'NONE',  ( 3.491481338843133355E-15, -0.0000000000000000000, 1.000000000000000000 ) ) ;
#253 = CIRCLE ( 'NONE', #66, 1.999999999999991340 ) ;
#254 = APPROVAL_PERSON_ORGANIZATION ( #35, #261, #100 ) ;
#255 = ADVANCED_FACE ( 'NONE', ( #174 ), #108, .F. ) ;
#256 = CARTESIAN_POINT ( 'NONE',  ( 0.0000000000000000000, 0.0000000000000000000, 0.0000000000000000000 ) ) ;
#257 = EDGE_LOOP ( 'NONE', ( #72 ) ) ;
#258 = EDGE_LOOP ( 'NONE', ( #116 ) ) ;
#259 = LOCAL_TIME ( 13, 42, 19.00000000000000000, #95 ) ;
#260 = VERTEX_POINT ( 'NONE', #217 ) ;
#261 = APPROVAL ( #80, 'UNSPECIFIED' ) ;
#262 = MANIFOLD_SOLID_BREP ( 'Corps-Déplacer/Copier1[2]', #63 ) ;
#263 = CARTESIAN_POINT ( 'NONE',  ( 2.031217482809386159E-14, 0.0000000000000000000, 5.817638090205027090 ) ) ;
ENDSEC;
END-ISO-10303-21;
