ISO-10303-21;
HEADER;
FILE_DESCRIPTION (( 'STEP AP203' ),
    '1' );
FILE_NAME ('392815.step',
    '2021-12-09T12:42:17',
    ( '' ),
    ( '' ),
    'SwSTEP 2.0',
    'SolidWorks 2019',
    '' );
FILE_SCHEMA (( 'CONFIG_CONTROL_DESIGN' ));
ENDSEC;

DATA;
#1 = VERTEX_POINT ( 'NONE', #245 ) ;
#2 = CARTESIAN_POINT ( 'NONE',  ( 0.8000000000000000444, 0.0000000000000000000, -2.820290125386644295E-15 ) ) ;
#3 = ADVANCED_FACE ( 'NONE', ( #38, #58 ), #147, .F. ) ;
#4 = ADVANCED_FACE ( 'NONE', ( #121, #181 ), #236, .T. ) ;
#5 = AXIS2_PLACEMENT_3D ( 'NONE', #19, #180, #160 ) ;
#6 = FACE_OUTER_BOUND ( 'NONE', #229, .T. ) ;
#7 = CARTESIAN_POINT ( 'NONE',  ( -9.463679131915806782E-32, 0.0000000000000000000, -2.710505431213761085E-17 ) ) ;
#8 = DIRECTION ( 'NONE',  ( -3.491481338843133355E-15, -8.373166487193537181E-16, -1.000000000000000000 ) ) ;
#9 = CALENDAR_DATE ( 2021, 9, 12 ) ;
#10 = CC_DESIGN_PERSON_AND_ORGANIZATION_ASSIGNMENT ( #176, #194, ( #197 ) ) ;
#11 =( GEOMETRIC_REPRESENTATION_CONTEXT ( 3 ) GLOBAL_UNCERTAINTY_ASSIGNED_CONTEXT ( ( #123 ) ) GLOBAL_UNIT_ASSIGNED_CONTEXT ( ( #27, #132, #43 ) ) REPRESENTATION_CONTEXT ( 'NONE', 'WORKASPACE' ) );
#12 = DATE_AND_TIME ( #137, #238 ) ;
#13 = LOCAL_TIME ( 13, 42, 17.00000000000000000, #103 ) ;
#14 = COORDINATED_UNIVERSAL_TIME_OFFSET ( 1, 0, .AHEAD. ) ;
#15 = ADVANCED_FACE ( 'NONE', ( #39 ), #104, .F. ) ;
#16 = APPROVAL_STATUS ( 'not_yet_approved' ) ;
#17 = EDGE_LOOP ( 'NONE', ( #177 ) ) ;
#18 = DATE_AND_TIME ( #208, #13 ) ;
#19 = CARTESIAN_POINT ( 'NONE',  ( 1.312796983405018394E-13, -1.992867372855786087E-16, 37.60000000000000853 ) ) ;
#20 = AXIS2_PLACEMENT_3D ( 'NONE', #130, #220, #87 ) ;
#21 = PERSON ( 'UNSPECIFIED', 'UNSPECIFIED', 'UNSPECIFIED', ('UNSPECIFIED'), ('UNSPECIFIED'), ('UNSPECIFIED') ) ;
#22 = DIRECTION ( 'NONE',  ( 3.491481338843133355E-15, -0.0000000000000000000, 1.000000000000000000 ) ) ;
#23 = AXIS2_PLACEMENT_3D ( 'NONE', #152, #204, #31 ) ;
#24 = CARTESIAN_POINT ( 'NONE',  ( 1.682069348925073139E-14, 0.0000000000000000000, 4.817638090205028867 ) ) ;
#25 = AXIS2_PLACEMENT_3D ( 'NONE', #249, #136, #30 ) ;
#26 = CC_DESIGN_SECURITY_CLASSIFICATION ( #197, ( #148 ) ) ;
#27 =( LENGTH_UNIT ( ) NAMED_UNIT ( * ) SI_UNIT ( .MILLI., .METRE. ) );
#28 = DIRECTION ( 'NONE',  ( -2.923475453706294812E-30, 1.000000000000000000, -8.373166487193537181E-16 ) ) ;
#29 = CIRCLE ( 'NONE', #107, 1.999999999999991784 ) ;
#30 = DIRECTION ( 'NONE',  ( 2.923475453706294812E-30, -1.000000000000000000, 8.373166487193537181E-16 ) ) ;
#31 = DIRECTION ( 'NONE',  ( -3.984009121696274142E-31, -1.000000000000000000, -1.141065563597236476E-16 ) ) ;
#32 = CC_DESIGN_PERSON_AND_ORGANIZATION_ASSIGNMENT ( #144, #98, ( #148 ) ) ;
#33 = PERSON_AND_ORGANIZATION ( #21, #184 ) ;
#34 = APPROVAL_ROLE ( '' ) ;
#35 = DIRECTION ( 'NONE',  ( 1.000000000000000000, 0.0000000000000000000, 0.0000000000000000000 ) ) ;
#36 = FACE_BOUND ( 'NONE', #248, .T. ) ;
#37 = AXIS2_PLACEMENT_3D ( 'NONE', #82, #261, #166 ) ;
#38 = FACE_OUTER_BOUND ( 'NONE', #17, .T. ) ;
#39 = FACE_OUTER_BOUND ( 'NONE', #162, .T. ) ;
#40 = DIRECTION ( 'NONE',  ( 1.000000000000000000, 0.0000000000000000000, -3.248094668055852928E-15 ) ) ;
#41 = EDGE_CURVE ( 'NONE', #244, #244, #122, .T. ) ;
#42 = CYLINDRICAL_SURFACE ( 'NONE', #196, 1.000000000000000000 ) ;
#43 =( NAMED_UNIT ( * ) SI_UNIT ( $, .STERADIAN. ) SOLID_ANGLE_UNIT ( ) );
#44 = VERTEX_POINT ( 'NONE', #223 ) ;
#45 = FACE_OUTER_BOUND ( 'NONE', #210, .T. ) ;
#46 = AXIS2_PLACEMENT_3D ( 'NONE', #24, #62, #40 ) ;
#47 = APPROVAL_PERSON_ORGANIZATION ( #49, #89, #34 ) ;
#48 = FACE_OUTER_BOUND ( 'NONE', #51, .T. ) ;
#49 = PERSON_AND_ORGANIZATION ( #21, #184 ) ;
#50 = SECURITY_CLASSIFICATION_LEVEL ( 'unclassified' ) ;
#51 = EDGE_LOOP ( 'NONE', ( #213 ) ) ;
#52 = APPLICATION_PROTOCOL_DEFINITION ( 'international standard', 'config_control_design', 1994, #93 ) ;
#53 = CALENDAR_DATE ( 2021, 9, 12 ) ;
#54 = DIRECTION ( 'NONE',  ( 1.000000000000000000, 0.0000000000000000000, -3.491481338843133355E-15 ) ) ;
#55 = DIRECTION ( 'NONE',  ( 0.0000000000000000000, -1.000000000000000000, 0.0000000000000000000 ) ) ;
#56 = CC_DESIGN_PERSON_AND_ORGANIZATION_ASSIGNMENT ( #178, #118, ( #148 ) ) ;
#57 = AXIS2_PLACEMENT_3D ( 'NONE', #172, #253, #35 ) ;
#58 = FACE_OUTER_BOUND ( 'NONE', #226, .T. ) ;
#59 = DIRECTION ( 'NONE',  ( 3.491481338843133355E-15, -0.0000000000000000000, 1.000000000000000000 ) ) ;
#60 = FACE_OUTER_BOUND ( 'NONE', #151, .T. ) ;
#61 = FACE_OUTER_BOUND ( 'NONE', #91, .T. ) ;
#62 = DIRECTION ( 'NONE',  ( 3.491481338843133355E-15, -0.0000000000000000000, 1.000000000000000000 ) ) ;
#63 = AXIS2_PLACEMENT_3D ( 'NONE', #149, #214, #55 ) ;
#64 = VERTEX_POINT ( 'NONE', #66 ) ;
#65 = DIRECTION ( 'NONE',  ( 3.491481338843133355E-15, -0.0000000000000000000, 1.000000000000000000 ) ) ;
#66 = CARTESIAN_POINT ( 'NONE',  ( 1.000000000000014877, 0.0000000000000000000, 4.299999999999996270 ) ) ;
#67 = DIRECTION ( 'NONE',  ( 1.000000000000000000, 0.0000000000000000000, -3.469446951953629177E-15 ) ) ;
#68 = PERSON_AND_ORGANIZATION_ROLE ( 'creator' ) ;
#69 = ADVANCED_FACE ( 'NONE', ( #36, #119 ), #110, .T. ) ;
#70 = APPROVAL_DATE_TIME ( #18, #90 ) ;
#71 = ORIENTED_EDGE ( 'NONE', *, *, #207, .T. ) ;
#72 = ORIENTED_EDGE ( 'NONE', *, *, #230, .F. ) ;
#73 = CIRCLE ( 'NONE', #221, 1.999999999999991340 ) ;
#74 = DATE_AND_TIME ( #153, #252 ) ;
#75 = APPLICATION_CONTEXT ( 'configuration controlled 3d designs of mechanical parts and assemblies' ) ;
#76 = DIRECTION ( 'NONE',  ( 1.000000000000000000, 0.0000000000000000000, -3.496552006265751800E-15 ) ) ;
#77 = PRODUCT_RELATED_PRODUCT_CATEGORY ( 'detail', '', ( #163 ) ) ;
#78 = ORIENTED_EDGE ( 'NONE', *, *, #80, .T. ) ;
#79 = DIRECTION ( 'NONE',  ( 3.984009121696274142E-31, 1.000000000000000000, 1.141065563597236476E-16 ) ) ;
#80 = EDGE_CURVE ( 'NONE', #125, #125, #242, .T. ) ;
#81 = PRODUCT_DEFINITION ( 'UNKNOWN', '', #148, #183 ) ;
#82 = CARTESIAN_POINT ( 'NONE',  ( 6.982962677686268683E-16, 0.0000000000000000000, 0.2000000000000000666 ) ) ;
#83 = CARTESIAN_POINT ( 'NONE',  ( 1.326762908760390423E-13, -1.599999999999991651, 38.00000000000000000 ) ) ;
#84 = TOROIDAL_SURFACE ( 'NONE', #37, 0.8000000000000000444, 0.2000000000000000389 ) ;
#85 = CC_DESIGN_APPROVAL ( #90, ( #197 ) ) ;
#86 = FACE_OUTER_BOUND ( 'NONE', #212, .T. ) ;
#87 = DIRECTION ( 'NONE',  ( 1.000000000000000000, 0.0000000000000000000, -3.469446951953614189E-15 ) ) ;
#88 = AXIS2_PLACEMENT_3D ( 'NONE', #113, #202, #185 ) ;
#89 = APPROVAL ( #189, 'UNSPECIFIED' ) ;
#90 = APPROVAL ( #139, 'UNSPECIFIED' ) ;
#91 = EDGE_LOOP ( 'NONE', ( #71 ) ) ;
#92 = DIRECTION ( 'NONE',  ( 3.491481338843133355E-15, -0.0000000000000000000, 1.000000000000000000 ) ) ;
#93 = APPLICATION_CONTEXT ( 'configuration controlled 3d designs of mechanical parts and assemblies' ) ;
#94 = DIRECTION ( 'NONE',  ( -3.491481338843133355E-15, 0.0000000000000000000, -1.000000000000000000 ) ) ;
#95 = DATE_AND_TIME ( #9, #164 ) ;
#96 = AXIS2_PLACEMENT_3D ( 'NONE', #247, #65, #186 ) ;
#97 = CC_DESIGN_APPROVAL ( #109, ( #148 ) ) ;
#98 = PERSON_AND_ORGANIZATION_ROLE ( 'creator' ) ;
#99 = ORIENTED_EDGE ( 'NONE', *, *, #128, .F. ) ;
#100 = MANIFOLD_SOLID_BREP ( 'Corps-Déplacer/Copier1[2]', #135 ) ;
#101 = COORDINATED_UNIVERSAL_TIME_OFFSET ( 1, 0, .AHEAD. ) ;
#102 = MANIFOLD_SOLID_BREP ( 'Corps-Déplacer/Copier1[1]', #117 ) ;
#103 = COORDINATED_UNIVERSAL_TIME_OFFSET ( 1, 0, .AHEAD. ) ;
#104 = PLANE ( 'NONE',  #215 ) ;
#105 = VERTEX_POINT ( 'NONE', #2 ) ;
#106 = ORIENTED_EDGE ( 'NONE', *, *, #230, .T. ) ;
#107 = AXIS2_PLACEMENT_3D ( 'NONE', #131, #227, #188 ) ;
#108 = FACE_OUTER_BOUND ( 'NONE', #158, .T. ) ;
#109 = APPROVAL ( #16, 'UNSPECIFIED' ) ;
#110 = CONICAL_SURFACE ( 'NONE', #5, 1.999999999999991340, 0.7853981633974599363 ) ;
#111 = CARTESIAN_POINT ( 'NONE',  ( 1.000000000000014877, 0.0000000000000000000, 4.299999999999996270 ) ) ;
#112 = ADVANCED_FACE ( 'NONE', ( #260 ), #161, .F. ) ;
#113 = CARTESIAN_POINT ( 'NONE',  ( 1.501336975702547343E-14, 0.0000000000000000000, 4.299999999999999822 ) ) ;
#114 = FACE_BOUND ( 'NONE', #159, .T. ) ;
#115 = ORIENTED_EDGE ( 'NONE', *, *, #41, .F. ) ;
#116 = APPROVAL_DATE_TIME ( #231, #109 ) ;
#117 = CLOSED_SHELL ( 'NONE', ( #4, #69, #15, #175, #3, #191 ) ) ;
#118 = PERSON_AND_ORGANIZATION_ROLE ( 'design_supplier' ) ;
#119 = FACE_OUTER_BOUND ( 'NONE', #240, .T. ) ;
#120 = AXIS2_PLACEMENT_3D ( 'NONE', #259, #22, #76 ) ;
#121 = FACE_OUTER_BOUND ( 'NONE', #193, .T. ) ;
#122 = CIRCLE ( 'NONE', #262, 1.599999999999991429 ) ;
#123 = UNCERTAINTY_MEASURE_WITH_UNIT (LENGTH_MEASURE( 1.000000000000000082E-05 ), #27, 'distance_accuracy_value', 'NONE');
#124 = CC_DESIGN_DATE_AND_TIME_ASSIGNMENT ( #12, #192, ( #81 ) ) ;
#125 = VERTEX_POINT ( 'NONE', #150 ) ;
#126 = AXIS2_PLACEMENT_3D ( 'NONE', #7, #92, #170 ) ;
#127 = LOCAL_TIME ( 13, 42, 17.00000000000000000, #101 ) ;
#128 = EDGE_CURVE ( 'NONE', #222, #222, #211, .T. ) ;
#129 = EDGE_CURVE ( 'NONE', #44, #44, #29, .T. ) ;
#130 = CARTESIAN_POINT ( 'NONE',  ( 1.501336975702547343E-14, 0.0000000000000000000, 4.299999999999999822 ) ) ;
#131 = CARTESIAN_POINT ( 'NONE',  ( 1.312796983405018394E-13, -1.992867372855786087E-16, 37.60000000000000853 ) ) ;
#132 =( NAMED_UNIT ( * ) PLANE_ANGLE_UNIT ( ) SI_UNIT ( $, .RADIAN. ) );
#133 = ORIENTED_EDGE ( 'NONE', *, *, #218, .F. ) ;
#134 = AXIS2_PLACEMENT_3D ( 'NONE', #200, #8, #28 ) ;
#135 = CLOSED_SHELL ( 'NONE', ( #167, #239, #224, #112 ) ) ;
#136 = DIRECTION ( 'NONE',  ( 3.491481338843133355E-15, 8.373166487193537181E-16, 1.000000000000000000 ) ) ;
#137 = CALENDAR_DATE ( 2021, 9, 12 ) ;
#138 = VERTEX_POINT ( 'NONE', #157 ) ;
#139 = APPROVAL_STATUS ( 'not_yet_approved' ) ;
#140 = APPLICATION_PROTOCOL_DEFINITION ( 'international standard', 'config_control_design', 1994, #75 ) ;
#141 = ORIENTED_EDGE ( 'NONE', *, *, #80, .F. ) ;
#142 = AXIS2_PLACEMENT_3D ( 'NONE', #237, #59, #54 ) ;
#143 = PERSON_AND_ORGANIZATION ( #21, #184 ) ;
#144 = PERSON_AND_ORGANIZATION ( #21, #184 ) ;
#145 = CARTESIAN_POINT ( 'NONE',  ( 1.326762908760390423E-13, -2.449293598294670423E-16, 38.00000000000000000 ) ) ;
#146 = DIRECTION ( 'NONE',  ( -3.491481338843133355E-15, 1.141065563597236476E-16, -1.000000000000000000 ) ) ;
#147 = TOROIDAL_SURFACE ( 'NONE', #142, 3.000000000000000000, 2.000000000000000000 ) ;
#148 = PRODUCT_DEFINITION_FORMATION_WITH_SPECIFIED_SOURCE ( 'ANY', '', #163, .NOT_KNOWN. ) ;
#149 = CARTESIAN_POINT ( 'NONE',  ( 1.326762908760390423E-13, -2.449293598294670423E-16, 38.00000000000000000 ) ) ;
#150 = CARTESIAN_POINT ( 'NONE',  ( 1.000000000000000666, 0.0000000000000000000, 0.1999999999999965694 ) ) ;
#151 = EDGE_LOOP ( 'NONE', ( #78 ) ) ;
#152 = CARTESIAN_POINT ( 'NONE',  ( 1.501336975702547027E-14, 3.600461589493219824E-15, 4.299999999999998934 ) ) ;
#153 = CALENDAR_DATE ( 2021, 9, 12 ) ;
#154 = CIRCLE ( 'NONE', #46, 1.068148347421860045 ) ;
#155 = APPROVAL_PERSON_ORGANIZATION ( #209, #109, #234 ) ;
#156 = COORDINATED_UNIVERSAL_TIME_OFFSET ( 1, 0, .AHEAD. ) ;
#157 = CARTESIAN_POINT ( 'NONE',  ( 2.000000000000020428, 0.0000000000000000000, 8.295355802743724638 ) ) ;
#158 = EDGE_LOOP ( 'NONE', ( #141 ) ) ;
#159 = EDGE_LOOP ( 'NONE', ( #106 ) ) ;
#160 = DIRECTION ( 'NONE',  ( 0.0000000000000000000, 1.000000000000000000, 0.0000000000000000000 ) ) ;
#161 = PLANE ( 'NONE',  #134 ) ;
#162 = EDGE_LOOP ( 'NONE', ( #241 ) ) ;
#163 = PRODUCT ( '392815', '392815', '', ( #235 ) ) ;
#164 = LOCAL_TIME ( 13, 42, 17.00000000000000000, #14 ) ;
#165 = DIRECTION ( 'NONE',  ( 3.491481338843133355E-15, -0.0000000000000000000, 1.000000000000000000 ) ) ;
#166 = DIRECTION ( 'NONE',  ( 1.000000000000000000, 0.0000000000000000000, -3.491481338843133355E-15 ) ) ;
#167 = ADVANCED_FACE ( 'NONE', ( #6 ), #168, .F. ) ;
#168 = PLANE ( 'NONE',  #25 ) ;
#169 = ORIENTED_EDGE ( 'NONE', *, *, #129, .F. ) ;
#170 = DIRECTION ( 'NONE',  ( 1.000000000000000000, 0.0000000000000000000, -3.491481338843133355E-15 ) ) ;
#171 = CARTESIAN_POINT ( 'NONE',  ( 2.896307998434384174E-14, 0.0000000000000000000, 8.295355802743731743 ) ) ;
#172 = CARTESIAN_POINT ( 'NONE',  ( 0.0000000000000000000, 0.0000000000000000000, 0.0000000000000000000 ) ) ;
#173 = APPROVAL_ROLE ( '' ) ;
#174 = ORIENTED_EDGE ( 'NONE', *, *, #129, .T. ) ;
#175 = ADVANCED_FACE ( 'NONE', ( #114, #48 ), #246, .T. ) ;
#176 = PERSON_AND_ORGANIZATION ( #21, #184 ) ;
#177 = ORIENTED_EDGE ( 'NONE', *, *, #128, .T. ) ;
#178 = PERSON_AND_ORGANIZATION ( #21, #184 ) ;
#179 = CIRCLE ( 'NONE', #20, 1.000000000000000000 ) ;
#180 = DIRECTION ( 'NONE',  ( -3.491481338843133355E-15, 1.141065563597236476E-16, -1.000000000000000000 ) ) ;
#181 = FACE_OUTER_BOUND ( 'NONE', #187, .T. ) ;
#182 = CC_DESIGN_PERSON_AND_ORGANIZATION_ASSIGNMENT ( #33, #190, ( #163 ) ) ;
#183 = DESIGN_CONTEXT ( 'detailed design', #93, 'design' ) ;
#184 = ORGANIZATION ( 'UNSPECIFIED', 'UNSPECIFIED', '' ) ;
#185 = DIRECTION ( 'NONE',  ( 1.000000000000000000, 0.0000000000000000000, -3.469446951953614189E-15 ) ) ;
#186 = DIRECTION ( 'NONE',  ( 1.000000000000000000, 0.0000000000000000000, -3.589083053745119296E-15 ) ) ;
#187 = EDGE_LOOP ( 'NONE', ( #133 ) ) ;
#188 = DIRECTION ( 'NONE',  ( 0.0000000000000000000, -1.000000000000000000, 0.0000000000000000000 ) ) ;
#189 = APPROVAL_STATUS ( 'not_yet_approved' ) ;
#190 = PERSON_AND_ORGANIZATION_ROLE ( 'design_owner' ) ;
#191 = ADVANCED_FACE ( 'NONE', ( #45 ), #206, .F. ) ;
#192 = DATE_TIME_ROLE ( 'creation_date' ) ;
#193 = EDGE_LOOP ( 'NONE', ( #169 ) ) ;
#194 = PERSON_AND_ORGANIZATION_ROLE ( 'classification_officer' ) ;
#195 = CARTESIAN_POINT ( 'NONE',  ( 1.326762908760390423E-13, -2.449293598294670423E-16, 38.00000000000000000 ) ) ;
#196 = AXIS2_PLACEMENT_3D ( 'NONE', #263, #165, #243 ) ;
#197 = SECURITY_CLASSIFICATION ( '', '', #50 ) ;
#198 = PRODUCT_DEFINITION_SHAPE ( 'NONE', 'NONE',  #81 ) ;
#199 = DIRECTION ( 'NONE',  ( 3.491481338843133355E-15, -1.141065563597236476E-16, 1.000000000000000000 ) ) ;
#200 = CARTESIAN_POINT ( 'NONE',  ( 1.501336975702547343E-14, 3.600461589493221402E-15, 4.299999999999999822 ) ) ;
#201 = CC_DESIGN_APPROVAL ( #89, ( #81 ) ) ;
#202 = DIRECTION ( 'NONE',  ( 3.491481338843133355E-15, -0.0000000000000000000, 1.000000000000000000 ) ) ;
#203 = ADVANCED_BREP_SHAPE_REPRESENTATION ( '392815', ( #102, #100, #57 ), #11 ) ;
#204 = DIRECTION ( 'NONE',  ( 3.491481338843133355E-15, -1.141065563597236476E-16, 1.000000000000000000 ) ) ;
#205 = EDGE_LOOP ( 'NONE', ( #217 ) ) ;
#206 = PLANE ( 'NONE',  #23 ) ;
#207 = EDGE_CURVE ( 'NONE', #105, #105, #250, .T. ) ;
#208 = CALENDAR_DATE ( 2021, 9, 12 ) ;
#209 = PERSON_AND_ORGANIZATION ( #21, #184 ) ;
#210 = EDGE_LOOP ( 'NONE', ( #99 ) ) ;
#211 = CIRCLE ( 'NONE', #88, 1.000000000000000000 ) ;
#212 = EDGE_LOOP ( 'NONE', ( #233 ) ) ;
#213 = ORIENTED_EDGE ( 'NONE', *, *, #218, .T. ) ;
#214 = DIRECTION ( 'NONE',  ( 3.491481338843133355E-15, -1.141065563597236476E-16, 1.000000000000000000 ) ) ;
#215 = AXIS2_PLACEMENT_3D ( 'NONE', #195, #146, #79 ) ;
#216 = APPROVAL_PERSON_ORGANIZATION ( #143, #90, #173 ) ;
#217 = ORIENTED_EDGE ( 'NONE', *, *, #219, .T. ) ;
#218 = EDGE_CURVE ( 'NONE', #138, #138, #73, .T. ) ;
#219 = EDGE_CURVE ( 'NONE', #64, #64, #179, .T. ) ;
#220 = DIRECTION ( 'NONE',  ( 3.491481338843133355E-15, -0.0000000000000000000, 1.000000000000000000 ) ) ;
#221 = AXIS2_PLACEMENT_3D ( 'NONE', #171, #94, #67 ) ;
#222 = VERTEX_POINT ( 'NONE', #111 ) ;
#223 = CARTESIAN_POINT ( 'NONE',  ( 1.312796983405018394E-13, -1.999999999999991784, 37.60000000000000853 ) ) ;
#224 = ADVANCED_FACE ( 'NONE', ( #60, #86 ), #42, .T. ) ;
#225 = CC_DESIGN_DATE_AND_TIME_ASSIGNMENT ( #74, #254, ( #197 ) ) ;
#226 = EDGE_LOOP ( 'NONE', ( #72 ) ) ;
#227 = DIRECTION ( 'NONE',  ( 3.491481338843133355E-15, -1.141065563597236476E-16, 1.000000000000000000 ) ) ;
#228 = SHAPE_DEFINITION_REPRESENTATION ( #198, #203 ) ;
#229 = EDGE_LOOP ( 'NONE', ( #255 ) ) ;
#230 = EDGE_CURVE ( 'NONE', #1, #1, #154, .T. ) ;
#231 = DATE_AND_TIME ( #53, #127 ) ;
#232 = PERSON_AND_ORGANIZATION ( #21, #184 ) ;
#233 = ORIENTED_EDGE ( 'NONE', *, *, #219, .F. ) ;
#234 = APPROVAL_ROLE ( '' ) ;
#235 = MECHANICAL_CONTEXT ( 'NONE', #75, 'mechanical' ) ;
#236 = CYLINDRICAL_SURFACE ( 'NONE', #63, 1.999999999999991340 ) ;
#237 = CARTESIAN_POINT ( 'NONE',  ( 1.501336975702547343E-14, 0.0000000000000000000, 4.299999999999999822 ) ) ;
#238 = LOCAL_TIME ( 13, 42, 17.00000000000000000, #156 ) ;
#239 = ADVANCED_FACE ( 'NONE', ( #61, #108 ), #84, .T. ) ;
#240 = EDGE_LOOP ( 'NONE', ( #174 ) ) ;
#241 = ORIENTED_EDGE ( 'NONE', *, *, #41, .T. ) ;
#242 = CIRCLE ( 'NONE', #120, 1.000000000000000000 ) ;
#243 = DIRECTION ( 'NONE',  ( 1.000000000000000000, 0.0000000000000000000, -3.491481338843133355E-15 ) ) ;
#244 = VERTEX_POINT ( 'NONE', #83 ) ;
#245 = CARTESIAN_POINT ( 'NONE',  ( 1.068148347421876920, 0.0000000000000000000, 4.817638090205025314 ) ) ;
#246 = CONICAL_SURFACE ( 'NONE', #96, 5.799999999999998046, 0.2617993877991428020 ) ;
#247 = CARTESIAN_POINT ( 'NONE',  ( 7.847854583526172942E-14, 0.0000000000000000000, 22.47714887150586804 ) ) ;
#248 = EDGE_LOOP ( 'NONE', ( #115 ) ) ;
#249 = CARTESIAN_POINT ( 'NONE',  ( -2.923475453706282200E-30, 1.999999999999991340, -8.373166487193501683E-16 ) ) ;
#250 = CIRCLE ( 'NONE', #126, 0.8000000000000000444 ) ;
#251 = APPROVAL_DATE_TIME ( #95, #89 ) ;
#252 = LOCAL_TIME ( 13, 42, 17.00000000000000000, #257 ) ;
#253 = DIRECTION ( 'NONE',  ( 0.0000000000000000000, 0.0000000000000000000, 1.000000000000000000 ) ) ;
#254 = DATE_TIME_ROLE ( 'classification_date' ) ;
#255 = ORIENTED_EDGE ( 'NONE', *, *, #207, .F. ) ;
#256 = CC_DESIGN_PERSON_AND_ORGANIZATION_ASSIGNMENT ( #232, #68, ( #81 ) ) ;
#257 = COORDINATED_UNIVERSAL_TIME_OFFSET ( 1, 0, .AHEAD. ) ;
#258 = DIRECTION ( 'NONE',  ( 0.0000000000000000000, -1.000000000000000000, 0.0000000000000000000 ) ) ;
#259 = CARTESIAN_POINT ( 'NONE',  ( 6.982962677686268683E-16, 0.0000000000000000000, 0.2000000000000000666 ) ) ;
#260 = FACE_OUTER_BOUND ( 'NONE', #205, .T. ) ;
#261 = DIRECTION ( 'NONE',  ( 3.491481338843133355E-15, -0.0000000000000000000, 1.000000000000000000 ) ) ;
#262 = AXIS2_PLACEMENT_3D ( 'NONE', #145, #199, #258 ) ;
#263 = CARTESIAN_POINT ( 'NONE',  ( 0.0000000000000000000, 0.0000000000000000000, 0.0000000000000000000 ) ) ;
ENDSEC;
END-ISO-10303-21;
