ISO-10303-21;
HEADER;
FILE_DESCRIPTION (( 'STEP AP203' ),
    '1' );
FILE_NAME ('392813.step',
    '2021-12-09T12:42:16',
    ( '' ),
    ( '' ),
    'SwSTEP 2.0',
    'SolidWorks 2019',
    '' );
FILE_SCHEMA (( 'CONFIG_CONTROL_DESIGN' ));
ENDSEC;

DATA;
#1 = ORIENTED_EDGE ( 'NONE', *, *, #38, .F. ) ;
#2 = CARTESIAN_POINT ( 'NONE',  ( 1.326762908760390423E-13, -2.449293598294670423E-16, 38.00000000000000000 ) ) ;
#3 = ADVANCED_FACE ( 'NONE', ( #108, #91 ), #249, .T. ) ;
#4 = AXIS2_PLACEMENT_3D ( 'NONE', #111, #9, #196 ) ;
#5 = FACE_OUTER_BOUND ( 'NONE', #185, .T. ) ;
#6 = PRODUCT_RELATED_PRODUCT_CATEGORY ( 'detail', '', ( #21 ) ) ;
#7 = PRODUCT_DEFINITION_FORMATION_WITH_SPECIFIED_SOURCE ( 'ANY', '', #21, .NOT_KNOWN. ) ;
#8 = PERSON_AND_ORGANIZATION ( #81, #200 ) ;
#9 = DIRECTION ( 'NONE',  ( 3.491481338843133355E-15, -0.0000000000000000000, 1.000000000000000000 ) ) ;
#10 = COORDINATED_UNIVERSAL_TIME_OFFSET ( 1, 0, .AHEAD. ) ;
#11 = VERTEX_POINT ( 'NONE', #212 ) ;
#12 = CC_DESIGN_DATE_AND_TIME_ASSIGNMENT ( #152, #78, ( #42 ) ) ;
#13 = PERSON_AND_ORGANIZATION_ROLE ( 'design_supplier' ) ;
#14 = CARTESIAN_POINT ( 'NONE',  ( 1.312796983405018394E-13, -1.976326558623979360E-16, 37.60000000000000853 ) ) ;
#15 = CIRCLE ( 'NONE', #61, 0.7499999999999997780 ) ;
#16 = CARTESIAN_POINT ( 'NONE',  ( 1.312796983405018394E-13, -1.999999999999991784, 37.60000000000000853 ) ) ;
#17 = CARTESIAN_POINT ( 'NONE',  ( 0.7500000000000007772, 0.0000000000000000000, 0.1999999999999974021 ) ) ;
#18 = CC_DESIGN_DATE_AND_TIME_ASSIGNMENT ( #73, #79, ( #194 ) ) ;
#19 = PERSON_AND_ORGANIZATION_ROLE ( 'creator' ) ;
#20 = ORIENTED_EDGE ( 'NONE', *, *, #82, .F. ) ;
#21 = PRODUCT ( '392813', '392813', '', ( #214 ) ) ;
#22 = FACE_OUTER_BOUND ( 'NONE', #121, .T. ) ;
#23 = AXIS2_PLACEMENT_3D ( 'NONE', #150, #230, #151 ) ;
#24 = DIRECTION ( 'NONE',  ( 3.491481338843133355E-15, -0.0000000000000000000, 1.000000000000000000 ) ) ;
#25 = DIRECTION ( 'NONE',  ( 1.000000000000000000, 0.0000000000000000000, -3.505587024369797144E-15 ) ) ;
#26 = DIRECTION ( 'NONE',  ( 3.491481338843133355E-15, -1.182417599176753665E-16, 1.000000000000000000 ) ) ;
#27 = CALENDAR_DATE ( 2021, 9, 12 ) ;
#28 = CARTESIAN_POINT ( 'NONE',  ( 6.982962677686267697E-16, 0.0000000000000000000, 0.2000000000000000389 ) ) ;
#29 = COORDINATED_UNIVERSAL_TIME_OFFSET ( 1, 0, .AHEAD. ) ;
#30 = CARTESIAN_POINT ( 'NONE',  ( 7.463791636253431428E-14, 0.0000000000000000000, 21.37714887150587373 ) ) ;
#31 = PERSON_AND_ORGANIZATION_ROLE ( 'creator' ) ;
#32 = ADVANCED_BREP_SHAPE_REPRESENTATION ( '392813', ( #98, #99, #71 ), #40 ) ;
#33 = VERTEX_POINT ( 'NONE', #188 ) ;
#34 = VERTEX_POINT ( 'NONE', #16 ) ;
#35 = AXIS2_PLACEMENT_3D ( 'NONE', #187, #223, #141 ) ;
#36 = SHAPE_DEFINITION_REPRESENTATION ( #179, #32 ) ;
#37 = LOCAL_TIME ( 13, 42, 16.00000000000000000, #203 ) ;
#38 = EDGE_CURVE ( 'NONE', #170, #170, #106, .T. ) ;
#39 = ORIENTED_EDGE ( 'NONE', *, *, #82, .T. ) ;
#40 =( GEOMETRIC_REPRESENTATION_CONTEXT ( 3 ) GLOBAL_UNCERTAINTY_ASSIGNED_CONTEXT ( ( #107 ) ) GLOBAL_UNIT_ASSIGNED_CONTEXT ( ( #74, #190, #131 ) ) REPRESENTATION_CONTEXT ( 'NONE', 'WORKASPACE' ) );
#41 = CC_DESIGN_APPROVAL ( #126, ( #194 ) ) ;
#42 = PRODUCT_DEFINITION ( 'UNKNOWN', '', #7, #184 ) ;
#43 = ORIENTED_EDGE ( 'NONE', *, *, #158, .T. ) ;
#44 = FACE_OUTER_BOUND ( 'NONE', #217, .T. ) ;
#45 = AXIS2_PLACEMENT_3D ( 'NONE', #263, #24, #85 ) ;
#46 = ADVANCED_FACE ( 'NONE', ( #5, #183 ), #80, .F. ) ;
#47 = CARTESIAN_POINT ( 'NONE',  ( 1.298006401652328627E-14, 0.0000000000000000000, 3.717638090205029666 ) ) ;
#48 = DIRECTION ( 'NONE',  ( -3.491481338843133355E-15, 1.182417599176753665E-16, -1.000000000000000000 ) ) ;
#49 = APPROVAL_STATUS ( 'not_yet_approved' ) ;
#50 = LOCAL_TIME ( 13, 42, 16.00000000000000000, #29 ) ;
#51 = CARTESIAN_POINT ( 'NONE',  ( 1.117274028429802989E-14, 3.869883885305635257E-15, 3.200000000000001066 ) ) ;
#52 = DATE_AND_TIME ( #69, #262 ) ;
#53 = DIRECTION ( 'NONE',  ( 3.491481338843133355E-15, -0.0000000000000000000, 1.000000000000000000 ) ) ;
#54 = ADVANCED_FACE ( 'NONE', ( #68 ), #226, .F. ) ;
#55 = CIRCLE ( 'NONE', #138, 1.999999999999991784 ) ;
#56 = DIRECTION ( 'NONE',  ( 3.491481338843133355E-15, -0.0000000000000000000, 1.000000000000000000 ) ) ;
#57 = CARTESIAN_POINT ( 'NONE',  ( 0.0000000000000000000, 0.0000000000000000000, 0.0000000000000000000 ) ) ;
#58 = APPROVAL_ROLE ( '' ) ;
#59 = CIRCLE ( 'NONE', #234, 0.7499999999999997780 ) ;
#60 = EDGE_LOOP ( 'NONE', ( #118 ) ) ;
#61 = AXIS2_PLACEMENT_3D ( 'NONE', #248, #168, #72 ) ;
#62 = AXIS2_PLACEMENT_3D ( 'NONE', #240, #63, #142 ) ;
#63 = DIRECTION ( 'NONE',  ( -3.491481338843133355E-15, -1.209338714158010771E-15, -1.000000000000000000 ) ) ;
#64 = APPROVAL_PERSON_ORGANIZATION ( #207, #126, #259 ) ;
#65 = DIRECTION ( 'NONE',  ( 0.0000000000000000000, 1.000000000000000000, 0.0000000000000000000 ) ) ;
#66 = FACE_OUTER_BOUND ( 'NONE', #246, .T. ) ;
#67 = DATE_AND_TIME ( #137, #50 ) ;
#68 = FACE_OUTER_BOUND ( 'NONE', #123, .T. ) ;
#69 = CALENDAR_DATE ( 2021, 9, 12 ) ;
#70 = CONICAL_SURFACE ( 'NONE', #261, 5.549999999999998046, 0.2617993877991426910 ) ;
#71 = AXIS2_PLACEMENT_3D ( 'NONE', #57, #136, #116 ) ;
#72 = DIRECTION ( 'NONE',  ( 1.000000000000000000, 0.0000000000000000000, -3.469446951953615372E-15 ) ) ;
#73 = DATE_AND_TIME ( #27, #37 ) ;
#74 =( LENGTH_UNIT ( ) NAMED_UNIT ( * ) SI_UNIT ( .MILLI., .METRE. ) );
#75 = VERTEX_POINT ( 'NONE', #112 ) ;
#76 = APPLICATION_PROTOCOL_DEFINITION ( 'international standard', 'config_control_design', 1994, #115 ) ;
#77 = PLANE ( 'NONE',  #23 ) ;
#78 = DATE_TIME_ROLE ( 'creation_date' ) ;
#79 = DATE_TIME_ROLE ( 'classification_date' ) ;
#80 = TOROIDAL_SURFACE ( 'NONE', #35, 2.750000000000000000, 2.000000000000000000 ) ;
#81 = PERSON ( 'UNSPECIFIED', 'UNSPECIFIED', 'UNSPECIFIED', ('UNSPECIFIED'), ('UNSPECIFIED'), ('UNSPECIFIED') ) ;
#82 = EDGE_CURVE ( 'NONE', #210, #210, #165, .T. ) ;
#83 = ORIENTED_EDGE ( 'NONE', *, *, #235, .F. ) ;
#84 = TOROIDAL_SURFACE ( 'NONE', #45, 0.5500000000000000444, 0.2000000000000000944 ) ;
#85 = DIRECTION ( 'NONE',  ( 1.000000000000000000, 0.0000000000000000000, -3.491481338843133355E-15 ) ) ;
#86 = DIRECTION ( 'NONE',  ( -4.128388982245335630E-31, -1.000000000000000000, -1.182417599176753665E-16 ) ) ;
#87 = AXIS2_PLACEMENT_3D ( 'NONE', #28, #161, #25 ) ;
#88 = EDGE_LOOP ( 'NONE', ( #20 ) ) ;
#89 = APPROVAL_STATUS ( 'not_yet_approved' ) ;
#90 = CC_DESIGN_PERSON_AND_ORGANIZATION_ASSIGNMENT ( #8, #233, ( #21 ) ) ;
#91 = FACE_OUTER_BOUND ( 'NONE', #236, .T. ) ;
#92 = FACE_BOUND ( 'NONE', #258, .T. ) ;
#93 = PERSON_AND_ORGANIZATION ( #81, #200 ) ;
#94 = CLOSED_SHELL ( 'NONE', ( #178, #119, #110, #135 ) ) ;
#95 = LOCAL_TIME ( 13, 42, 16.00000000000000000, #229 ) ;
#96 = ADVANCED_FACE ( 'NONE', ( #66 ), #202, .F. ) ;
#97 = VERTEX_POINT ( 'NONE', #192 ) ;
#98 = MANIFOLD_SOLID_BREP ( 'Corps-Déplacer/Copier1[1]', #205 ) ;
#99 = MANIFOLD_SOLID_BREP ( 'Corps-Déplacer/Copier1[2]', #94 ) ;
#100 = DIRECTION ( 'NONE',  ( 3.491481338843133355E-15, -1.182417599176753665E-16, 1.000000000000000000 ) ) ;
#101 = PERSON_AND_ORGANIZATION ( #81, #200 ) ;
#102 = CIRCLE ( 'NONE', #143, 0.8181483474218598229 ) ;
#103 = ORIENTED_EDGE ( 'NONE', *, *, #125, .T. ) ;
#104 = CC_DESIGN_PERSON_AND_ORGANIZATION_ASSIGNMENT ( #227, #19, ( #42 ) ) ;
#105 = FACE_OUTER_BOUND ( 'NONE', #139, .T. ) ;
#106 = CIRCLE ( 'NONE', #87, 0.7500000000000001110 ) ;
#107 = UNCERTAINTY_MEASURE_WITH_UNIT (LENGTH_MEASURE( 1.000000000000000082E-05 ), #74, 'distance_accuracy_value', 'NONE');
#108 = FACE_BOUND ( 'NONE', #88, .T. ) ;
#109 = DIRECTION ( 'NONE',  ( 3.491481338843133355E-15, -1.182417599176753665E-16, 1.000000000000000000 ) ) ;
#110 = ADVANCED_FACE ( 'NONE', ( #44, #144 ), #156, .T. ) ;
#111 = CARTESIAN_POINT ( 'NONE',  ( 0.0000000000000000000, 0.0000000000000000000, 0.0000000000000000000 ) ) ;
#112 = CARTESIAN_POINT ( 'NONE',  ( 0.8181483474218728125, 0.0000000000000000000, 3.717638090205026558 ) ) ;
#113 = APPROVAL_STATUS ( 'not_yet_approved' ) ;
#114 = DIRECTION ( 'NONE',  ( 1.000000000000000000, 0.0000000000000000000, -3.750753461571476227E-15 ) ) ;
#115 = APPLICATION_CONTEXT ( 'configuration controlled 3d designs of mechanical parts and assemblies' ) ;
#116 = DIRECTION ( 'NONE',  ( 1.000000000000000000, 0.0000000000000000000, 0.0000000000000000000 ) ) ;
#117 = AXIS2_PLACEMENT_3D ( 'NONE', #51, #26, #86 ) ;
#118 = ORIENTED_EDGE ( 'NONE', *, *, #218, .T. ) ;
#119 = ADVANCED_FACE ( 'NONE', ( #22, #105 ), #84, .T. ) ;
#120 = AXIS2_PLACEMENT_3D ( 'NONE', #2, #48, #242 ) ;
#121 = EDGE_LOOP ( 'NONE', ( #43 ) ) ;
#122 = DIRECTION ( 'NONE',  ( 1.000000000000000000, 0.0000000000000000000, -3.469446951953629177E-15 ) ) ;
#123 = EDGE_LOOP ( 'NONE', ( #39 ) ) ;
#124 = DIRECTION ( 'NONE',  ( 0.0000000000000000000, -1.000000000000000000, 0.0000000000000000000 ) ) ;
#125 = EDGE_CURVE ( 'NONE', #97, #97, #237, .T. ) ;
#126 = APPROVAL ( #49, 'UNSPECIFIED' ) ;
#127 = CALENDAR_DATE ( 2021, 9, 12 ) ;
#128 = DIRECTION ( 'NONE',  ( -3.491481338843133355E-15, 1.182417599176753665E-16, -1.000000000000000000 ) ) ;
#129 = DATE_AND_TIME ( #127, #95 ) ;
#130 = DIRECTION ( 'NONE',  ( 0.0000000000000000000, -1.000000000000000000, 0.0000000000000000000 ) ) ;
#131 =( NAMED_UNIT ( * ) SI_UNIT ( $, .STERADIAN. ) SOLID_ANGLE_UNIT ( ) );
#132 = FACE_OUTER_BOUND ( 'NONE', #224, .T. ) ;
#133 = CARTESIAN_POINT ( 'NONE',  ( 1.326762908760390423E-13, -2.449293598294670423E-16, 38.00000000000000000 ) ) ;
#134 = DIRECTION ( 'NONE',  ( 3.491481338843133355E-15, -0.0000000000000000000, 1.000000000000000000 ) ) ;
#135 = ADVANCED_FACE ( 'NONE', ( #182 ), #157, .F. ) ;
#136 = DIRECTION ( 'NONE',  ( 0.0000000000000000000, 0.0000000000000000000, 1.000000000000000000 ) ) ;
#137 = CALENDAR_DATE ( 2021, 9, 12 ) ;
#138 = AXIS2_PLACEMENT_3D ( 'NONE', #14, #100, #149 ) ;
#139 = EDGE_LOOP ( 'NONE', ( #1 ) ) ;
#140 = LOCAL_TIME ( 13, 42, 16.00000000000000000, #245 ) ;
#141 = DIRECTION ( 'NONE',  ( 1.000000000000000000, 0.0000000000000000000, -3.491481338843132961E-15 ) ) ;
#142 = DIRECTION ( 'NONE',  ( -4.222383552823244369E-30, 1.000000000000000000, -1.209338714158010771E-15 ) ) ;
#143 = AXIS2_PLACEMENT_3D ( 'NONE', #47, #56, #209 ) ;
#144 = FACE_OUTER_BOUND ( 'NONE', #176, .T. ) ;
#145 = APPROVAL_DATE_TIME ( #129, #126 ) ;
#146 = ORIENTED_EDGE ( 'NONE', *, *, #174, .T. ) ;
#147 = EDGE_CURVE ( 'NONE', #75, #75, #102, .T. ) ;
#148 = CARTESIAN_POINT ( 'NONE',  ( 0.5500000000000000444, 0.0000000000000000000, -1.974524844987998962E-15 ) ) ;
#149 = DIRECTION ( 'NONE',  ( 0.0000000000000000000, -1.000000000000000000, 0.0000000000000000000 ) ) ;
#150 = CARTESIAN_POINT ( 'NONE',  ( -4.222383552823226152E-30, 1.999999999999991340, -1.209338714158005249E-15 ) ) ;
#151 = DIRECTION ( 'NONE',  ( 4.222383552823244369E-30, -1.000000000000000000, 1.209338714158010771E-15 ) ) ;
#152 = DATE_AND_TIME ( #252, #140 ) ;
#153 = ORIENTED_EDGE ( 'NONE', *, *, #38, .T. ) ;
#154 = ORIENTED_EDGE ( 'NONE', *, *, #158, .F. ) ;
#155 = CC_DESIGN_APPROVAL ( #220, ( #7 ) ) ;
#156 = CYLINDRICAL_SURFACE ( 'NONE', #4, 0.7500000000000000000 ) ;
#157 = PLANE ( 'NONE',  #62 ) ;
#158 = EDGE_CURVE ( 'NONE', #213, #213, #206, .T. ) ;
#159 = ORIENTED_EDGE ( 'NONE', *, *, #174, .F. ) ;
#160 = APPROVAL_PERSON_ORGANIZATION ( #186, #220, #189 ) ;
#161 = DIRECTION ( 'NONE',  ( 3.491481338843133355E-15, -0.0000000000000000000, 1.000000000000000000 ) ) ;
#162 = PERSON_AND_ORGANIZATION ( #81, #200 ) ;
#163 = ORIENTED_EDGE ( 'NONE', *, *, #125, .F. ) ;
#164 = DIRECTION ( 'NONE',  ( 3.491481338843133355E-15, -0.0000000000000000000, 1.000000000000000000 ) ) ;
#165 = CIRCLE ( 'NONE', #171, 1.599999999999991429 ) ;
#166 = APPROVAL_PERSON_ORGANIZATION ( #162, #257, #58 ) ;
#167 = PERSON_AND_ORGANIZATION ( #81, #200 ) ;
#168 = DIRECTION ( 'NONE',  ( 3.491481338843133355E-15, -0.0000000000000000000, 1.000000000000000000 ) ) ;
#169 = CARTESIAN_POINT ( 'NONE',  ( 1.117274028429802989E-14, 0.0000000000000000000, 3.200000000000001066 ) ) ;
#170 = VERTEX_POINT ( 'NONE', #17 ) ;
#171 = AXIS2_PLACEMENT_3D ( 'NONE', #221, #109, #124 ) ;
#172 = CARTESIAN_POINT ( 'NONE',  ( -1.892735826383161356E-31, 0.0000000000000000000, -5.421010862427522170E-17 ) ) ;
#173 = EDGE_LOOP ( 'NONE', ( #177 ) ) ;
#174 = EDGE_CURVE ( 'NONE', #34, #34, #55, .T. ) ;
#175 = PERSON_AND_ORGANIZATION_ROLE ( 'classification_officer' ) ;
#176 = EDGE_LOOP ( 'NONE', ( #219 ) ) ;
#177 = ORIENTED_EDGE ( 'NONE', *, *, #147, .F. ) ;
#178 = ADVANCED_FACE ( 'NONE', ( #231 ), #77, .F. ) ;
#179 = PRODUCT_DEFINITION_SHAPE ( 'NONE', 'NONE',  #42 ) ;
#180 = AXIS2_PLACEMENT_3D ( 'NONE', #241, #128, #65 ) ;
#181 = CARTESIAN_POINT ( 'NONE',  ( 2.838004694917677700E-14, 0.0000000000000000000, 8.128368504635977487 ) ) ;
#182 = FACE_OUTER_BOUND ( 'NONE', #60, .T. ) ;
#183 = FACE_OUTER_BOUND ( 'NONE', #173, .T. ) ;
#184 = DESIGN_CONTEXT ( 'detailed design', #243, 'design' ) ;
#185 = EDGE_LOOP ( 'NONE', ( #199 ) ) ;
#186 = PERSON_AND_ORGANIZATION ( #81, #200 ) ;
#187 = CARTESIAN_POINT ( 'NONE',  ( 1.117274028429802831E-14, 0.0000000000000000000, 3.200000000000000622 ) ) ;
#188 = CARTESIAN_POINT ( 'NONE',  ( 0.7500000000000109912, 0.0000000000000000000, 3.199999999999998401 ) ) ;
#189 = APPROVAL_ROLE ( '' ) ;
#190 =( NAMED_UNIT ( * ) PLANE_ANGLE_UNIT ( ) SI_UNIT ( $, .RADIAN. ) );
#191 = DIRECTION ( 'NONE',  ( 3.491481338843133355E-15, -1.182417599176753665E-16, 1.000000000000000000 ) ) ;
#192 = CARTESIAN_POINT ( 'NONE',  ( 2.000000000000019540, 0.0000000000000000000, 8.128368504635970382 ) ) ;
#193 = APPLICATION_PROTOCOL_DEFINITION ( 'international standard', 'config_control_design', 1994, #243 ) ;
#194 = SECURITY_CLASSIFICATION ( '', '', #215 ) ;
#195 = APPROVAL_DATE_TIME ( #52, #257 ) ;
#196 = DIRECTION ( 'NONE',  ( 1.000000000000000000, 0.0000000000000000000, -3.491481338843133355E-15 ) ) ;
#197 = CC_DESIGN_PERSON_AND_ORGANIZATION_ASSIGNMENT ( #101, #13, ( #7 ) ) ;
#198 = AXIS2_PLACEMENT_3D ( 'NONE', #133, #191, #130 ) ;
#199 = ORIENTED_EDGE ( 'NONE', *, *, #235, .T. ) ;
#200 = ORGANIZATION ( 'UNSPECIFIED', 'UNSPECIFIED', '' ) ;
#201 = EDGE_LOOP ( 'NONE', ( #103 ) ) ;
#202 = PLANE ( 'NONE',  #117 ) ;
#203 = COORDINATED_UNIVERSAL_TIME_OFFSET ( 1, 0, .AHEAD. ) ;
#204 = ORIENTED_EDGE ( 'NONE', *, *, #147, .T. ) ;
#205 = CLOSED_SHELL ( 'NONE', ( #225, #3, #54, #211, #46, #96 ) ) ;
#206 = CIRCLE ( 'NONE', #222, 0.5500000000000000444 ) ;
#207 = PERSON_AND_ORGANIZATION ( #81, #200 ) ;
#208 = DIRECTION ( 'NONE',  ( 1.000000000000000000, 0.0000000000000000000, -3.469446951953615372E-15 ) ) ;
#209 = DIRECTION ( 'NONE',  ( 1.000000000000000000, 0.0000000000000000000, -3.710532561149436110E-15 ) ) ;
#210 = VERTEX_POINT ( 'NONE', #253 ) ;
#211 = ADVANCED_FACE ( 'NONE', ( #92, #228 ), #70, .T. ) ;
#212 = CARTESIAN_POINT ( 'NONE',  ( 0.7500000000000109912, 0.0000000000000000000, 3.199999999999998401 ) ) ;
#213 = VERTEX_POINT ( 'NONE', #148 ) ;
#214 = MECHANICAL_CONTEXT ( 'NONE', #115, 'mechanical' ) ;
#215 = SECURITY_CLASSIFICATION_LEVEL ( 'unclassified' ) ;
#216 = EDGE_LOOP ( 'NONE', ( #154 ) ) ;
#217 = EDGE_LOOP ( 'NONE', ( #153 ) ) ;
#218 = EDGE_CURVE ( 'NONE', #11, #11, #15, .T. ) ;
#219 = ORIENTED_EDGE ( 'NONE', *, *, #218, .F. ) ;
#220 = APPROVAL ( #113, 'UNSPECIFIED' ) ;
#221 = CARTESIAN_POINT ( 'NONE',  ( 1.326762908760390423E-13, -2.449293598294670423E-16, 38.00000000000000000 ) ) ;
#222 = AXIS2_PLACEMENT_3D ( 'NONE', #172, #53, #256 ) ;
#223 = DIRECTION ( 'NONE',  ( 3.491481338843133355E-15, -0.0000000000000000000, 1.000000000000000000 ) ) ;
#224 = EDGE_LOOP ( 'NONE', ( #163 ) ) ;
#225 = ADVANCED_FACE ( 'NONE', ( #254, #132 ), #232, .T. ) ;
#226 = PLANE ( 'NONE',  #120 ) ;
#227 = PERSON_AND_ORGANIZATION ( #81, #200 ) ;
#228 = FACE_OUTER_BOUND ( 'NONE', #201, .T. ) ;
#229 = COORDINATED_UNIVERSAL_TIME_OFFSET ( 1, 0, .AHEAD. ) ;
#230 = DIRECTION ( 'NONE',  ( 3.491481338843133355E-15, 1.209338714158010771E-15, 1.000000000000000000 ) ) ;
#231 = FACE_OUTER_BOUND ( 'NONE', #216, .T. ) ;
#232 = CYLINDRICAL_SURFACE ( 'NONE', #198, 1.999999999999991340 ) ;
#233 = PERSON_AND_ORGANIZATION_ROLE ( 'design_owner' ) ;
#234 = AXIS2_PLACEMENT_3D ( 'NONE', #169, #134, #208 ) ;
#235 = EDGE_CURVE ( 'NONE', #33, #33, #59, .T. ) ;
#236 = EDGE_LOOP ( 'NONE', ( #146 ) ) ;
#237 = CIRCLE ( 'NONE', #255, 1.999999999999991340 ) ;
#238 = CC_DESIGN_APPROVAL ( #257, ( #42 ) ) ;
#239 = DIRECTION ( 'NONE',  ( -3.491481338843133355E-15, 0.0000000000000000000, -1.000000000000000000 ) ) ;
#240 = CARTESIAN_POINT ( 'NONE',  ( 1.117274028429803463E-14, 3.869883885305636046E-15, 3.200000000000002398 ) ) ;
#241 = CARTESIAN_POINT ( 'NONE',  ( 1.312796983405018394E-13, -1.976326558623979360E-16, 37.60000000000000853 ) ) ;
#242 = DIRECTION ( 'NONE',  ( 4.128388982245335630E-31, 1.000000000000000000, 1.182417599176753665E-16 ) ) ;
#243 = APPLICATION_CONTEXT ( 'configuration controlled 3d designs of mechanical parts and assemblies' ) ;
#244 = CC_DESIGN_PERSON_AND_ORGANIZATION_ASSIGNMENT ( #93, #175, ( #194 ) ) ;
#245 = COORDINATED_UNIVERSAL_TIME_OFFSET ( 1, 0, .AHEAD. ) ;
#246 = EDGE_LOOP ( 'NONE', ( #83 ) ) ;
#247 = APPROVAL_DATE_TIME ( #67, #220 ) ;
#248 = CARTESIAN_POINT ( 'NONE',  ( 1.117274028429802989E-14, 0.0000000000000000000, 3.200000000000001066 ) ) ;
#249 = CONICAL_SURFACE ( 'NONE', #180, 1.999999999999991340, 0.7853981633974599363 ) ;
#250 = CC_DESIGN_SECURITY_CLASSIFICATION ( #194, ( #7 ) ) ;
#251 = CC_DESIGN_PERSON_AND_ORGANIZATION_ASSIGNMENT ( #167, #31, ( #7 ) ) ;
#252 = CALENDAR_DATE ( 2021, 9, 12 ) ;
#253 = CARTESIAN_POINT ( 'NONE',  ( 1.326762908760390423E-13, -1.599999999999991651, 38.00000000000000000 ) ) ;
#254 = FACE_OUTER_BOUND ( 'NONE', #260, .T. ) ;
#255 = AXIS2_PLACEMENT_3D ( 'NONE', #181, #239, #122 ) ;
#256 = DIRECTION ( 'NONE',  ( 1.000000000000000000, 0.0000000000000000000, -3.491481338843133750E-15 ) ) ;
#257 = APPROVAL ( #89, 'UNSPECIFIED' ) ;
#258 = EDGE_LOOP ( 'NONE', ( #204 ) ) ;
#259 = APPROVAL_ROLE ( '' ) ;
#260 = EDGE_LOOP ( 'NONE', ( #159 ) ) ;
#261 = AXIS2_PLACEMENT_3D ( 'NONE', #30, #164, #114 ) ;
#262 = LOCAL_TIME ( 13, 42, 16.00000000000000000, #10 ) ;
#263 = CARTESIAN_POINT ( 'NONE',  ( 6.982962677686267697E-16, 0.0000000000000000000, 0.2000000000000000389 ) ) ;
ENDSEC;
END-ISO-10303-21;
