ISO-10303-21;
HEADER;
FILE_DESCRIPTION (( 'STEP AP203' ),
    '1' );
FILE_NAME ('392812.step',
    '2021-12-09T12:42:16',
    ( '' ),
    ( '' ),
    'SwSTEP 2.0',
    'SolidWorks 2019',
    '' );
FILE_SCHEMA (( 'CONFIG_CONTROL_DESIGN' ));
ENDSEC;

DATA;
#1 = EDGE_LOOP ( 'NONE', ( #149 ) ) ;
#2 = APPLICATION_CONTEXT ( 'configuration controlled 3d designs of mechanical parts and assemblies' ) ;
#3 = ORIENTED_EDGE ( 'NONE', *, *, #228, .F. ) ;
#4 = DIRECTION ( 'NONE',  ( 3.491481338843133355E-15, -0.0000000000000000000, 1.000000000000000000 ) ) ;
#5 = PRODUCT ( '392812', '392812', '', ( #221 ) ) ;
#6 = CARTESIAN_POINT ( 'NONE',  ( 1.326762908760390423E-13, -2.449293598294670423E-16, 38.00000000000000000 ) ) ;
#7 = CC_DESIGN_PERSON_AND_ORGANIZATION_ASSIGNMENT ( #206, #116, ( #77 ) ) ;
#8 = AXIS2_PLACEMENT_3D ( 'NONE', #102, #195, #81 ) ;
#9 = DIRECTION ( 'NONE',  ( 1.000000000000000000, 0.0000000000000000000, -3.710532561149436110E-15 ) ) ;
#10 = AXIS2_PLACEMENT_3D ( 'NONE', #128, #213, #71 ) ;
#11 = CARTESIAN_POINT ( 'NONE',  ( 1.312796983405018394E-13, -1.976326558623979360E-16, 37.60000000000000853 ) ) ;
#12 = FACE_OUTER_BOUND ( 'NONE', #169, .T. ) ;
#13 = ADVANCED_FACE ( 'NONE', ( #210 ), #144, .F. ) ;
#14 = VERTEX_POINT ( 'NONE', #157 ) ;
#15 = CARTESIAN_POINT ( 'NONE',  ( 0.7500000000000109912, 0.0000000000000000000, 3.199999999999998401 ) ) ;
#16 = DATE_AND_TIME ( #56, #262 ) ;
#17 = VERTEX_POINT ( 'NONE', #110 ) ;
#18 = DATE_TIME_ROLE ( 'classification_date' ) ;
#19 = AXIS2_PLACEMENT_3D ( 'NONE', #85, #197, #61 ) ;
#20 = COORDINATED_UNIVERSAL_TIME_OFFSET ( 1, 0, .AHEAD. ) ;
#21 = PERSON_AND_ORGANIZATION_ROLE ( 'creator' ) ;
#22 = DESIGN_CONTEXT ( 'detailed design', #2, 'design' ) ;
#23 = TOROIDAL_SURFACE ( 'NONE', #55, 0.6500000000000000222, 0.1000000000000000749 ) ;
#24 = EDGE_CURVE ( 'NONE', #14, #14, #240, .T. ) ;
#25 = CARTESIAN_POINT ( 'NONE',  ( 1.117274028429802831E-14, 0.0000000000000000000, 3.200000000000000622 ) ) ;
#26 = DIRECTION ( 'NONE',  ( -3.491481338843133355E-15, 0.0000000000000000000, -1.000000000000000000 ) ) ;
#27 = DIRECTION ( 'NONE',  ( -3.491481338843133355E-15, 1.182417599176753665E-16, -1.000000000000000000 ) ) ;
#28 = CC_DESIGN_APPROVAL ( #218, ( #77 ) ) ;
#29 = DIRECTION ( 'NONE',  ( 3.491481338843133355E-15, -0.0000000000000000000, 1.000000000000000000 ) ) ;
#30 = DIRECTION ( 'NONE',  ( 3.491481338843133355E-15, -0.0000000000000000000, 1.000000000000000000 ) ) ;
#31 = APPROVAL ( #134, 'UNSPECIFIED' ) ;
#32 = AXIS2_PLACEMENT_3D ( 'NONE', #138, #141, #97 ) ;
#33 = VERTEX_POINT ( 'NONE', #219 ) ;
#34 = CIRCLE ( 'NONE', #208, 1.599999999999991429 ) ;
#35 = DATE_AND_TIME ( #140, #174 ) ;
#36 = DIRECTION ( 'NONE',  ( 3.491481338843133355E-15, -0.0000000000000000000, 1.000000000000000000 ) ) ;
#37 = PERSON_AND_ORGANIZATION ( #126, #142 ) ;
#38 = APPLICATION_PROTOCOL_DEFINITION ( 'international standard', 'config_control_design', 1994, #2 ) ;
#39 = AXIS2_PLACEMENT_3D ( 'NONE', #172, #30, #63 ) ;
#40 = EDGE_CURVE ( 'NONE', #33, #33, #106, .T. ) ;
#41 = ORIENTED_EDGE ( 'NONE', *, *, #24, .T. ) ;
#42 = EDGE_LOOP ( 'NONE', ( #193 ) ) ;
#43 = EDGE_LOOP ( 'NONE', ( #242 ) ) ;
#44 = FACE_OUTER_BOUND ( 'NONE', #190, .T. ) ;
#45 = DIRECTION ( 'NONE',  ( 1.000000000000000000, 0.0000000000000000000, -3.491481338843133355E-15 ) ) ;
#46 = DIRECTION ( 'NONE',  ( 3.491481338843133355E-15, -0.0000000000000000000, 1.000000000000000000 ) ) ;
#47 = AXIS2_PLACEMENT_3D ( 'NONE', #211, #26, #107 ) ;
#48 = DIRECTION ( 'NONE',  ( 3.491481338843133355E-15, -0.0000000000000000000, 1.000000000000000000 ) ) ;
#49 = FACE_OUTER_BOUND ( 'NONE', #192, .T. ) ;
#50 = FACE_BOUND ( 'NONE', #101, .T. ) ;
#51 = COORDINATED_UNIVERSAL_TIME_OFFSET ( 1, 0, .AHEAD. ) ;
#52 = ADVANCED_FACE ( 'NONE', ( #88, #67 ), #131, .T. ) ;
#53 = CC_DESIGN_SECURITY_CLASSIFICATION ( #163, ( #168 ) ) ;
#54 = CARTESIAN_POINT ( 'NONE',  ( 7.594095493755845444E-14, 0.0000000000000000000, 21.75035395226277046 ) ) ;
#55 = AXIS2_PLACEMENT_3D ( 'NONE', #89, #232, #252 ) ;
#56 = CALENDAR_DATE ( 2021, 9, 12 ) ;
#57 = PERSON_AND_ORGANIZATION_ROLE ( 'design_owner' ) ;
#58 = ORIENTED_EDGE ( 'NONE', *, *, #199, .F. ) ;
#59 = ORIENTED_EDGE ( 'NONE', *, *, #123, .T. ) ;
#60 = CARTESIAN_POINT ( 'NONE',  ( 1.117274028429802989E-14, 0.0000000000000000000, 3.200000000000001066 ) ) ;
#61 = DIRECTION ( 'NONE',  ( 4.222383552823244369E-30, -1.000000000000000000, 1.209338714158010771E-15 ) ) ;
#62 = AXIS2_PLACEMENT_3D ( 'NONE', #11, #27, #104 ) ;
#63 = DIRECTION ( 'NONE',  ( 1.000000000000000000, 0.0000000000000000000, -3.491481338843133355E-15 ) ) ;
#64 = FACE_BOUND ( 'NONE', #209, .T. ) ;
#65 = MANIFOLD_SOLID_BREP ( 'Corps-Déplacer/Copier1[2]', #90 ) ;
#66 = ADVANCED_FACE ( 'NONE', ( #214 ), #177, .F. ) ;
#67 = FACE_OUTER_BOUND ( 'NONE', #43, .T. ) ;
#68 = FACE_OUTER_BOUND ( 'NONE', #191, .T. ) ;
#69 = MANIFOLD_SOLID_BREP ( 'Corps-Déplacer/Copier1[1]', #229 ) ;
#70 = PERSON_AND_ORGANIZATION_ROLE ( 'classification_officer' ) ;
#71 = DIRECTION ( 'NONE',  ( 4.128388982245335630E-31, 1.000000000000000000, 1.182417599176753665E-16 ) ) ;
#72 = CONICAL_SURFACE ( 'NONE', #62, 1.999999999999991340, 0.7853981633974599363 ) ;
#73 = CALENDAR_DATE ( 2021, 9, 12 ) ;
#74 = DATE_AND_TIME ( #73, #146 ) ;
#75 = DATE_TIME_ROLE ( 'creation_date' ) ;
#76 = EDGE_LOOP ( 'NONE', ( #226 ) ) ;
#77 = PRODUCT_DEFINITION ( 'UNKNOWN', '', #168, #22 ) ;
#78 = ORIENTED_EDGE ( 'NONE', *, *, #96, .F. ) ;
#79 = ORIENTED_EDGE ( 'NONE', *, *, #139, .F. ) ;
#80 = ORIENTED_EDGE ( 'NONE', *, *, #40, .T. ) ;
#81 = DIRECTION ( 'NONE',  ( 1.000000000000000000, 0.0000000000000000000, -3.487516988161706061E-15 ) ) ;
#82 = PLANE ( 'NONE',  #19 ) ;
#83 = LOCAL_TIME ( 13, 42, 16.00000000000000000, #112 ) ;
#84 = CIRCLE ( 'NONE', #164, 0.6500000000000000222 ) ;
#85 = CARTESIAN_POINT ( 'NONE',  ( -4.222383552823226152E-30, 1.999999999999991340, -1.209338714158005249E-15 ) ) ;
#86 =( GEOMETRIC_REPRESENTATION_CONTEXT ( 3 ) GLOBAL_UNCERTAINTY_ASSIGNED_CONTEXT ( ( #117 ) ) GLOBAL_UNIT_ASSIGNED_CONTEXT ( ( #92, #186, #180 ) ) REPRESENTATION_CONTEXT ( 'NONE', 'WORKASPACE' ) );
#87 = ADVANCED_FACE ( 'NONE', ( #49 ), #82, .F. ) ;
#88 = FACE_OUTER_BOUND ( 'NONE', #122, .T. ) ;
#89 = CARTESIAN_POINT ( 'NONE',  ( 3.491481338843132862E-16, 0.0000000000000000000, 0.09999999999999997780 ) ) ;
#90 = CLOSED_SHELL ( 'NONE', ( #87, #185, #52, #66 ) ) ;
#91 = CARTESIAN_POINT ( 'NONE',  ( 0.6500000000000000222, 0.0000000000000000000, -2.391435614652655930E-15 ) ) ;
#92 =( LENGTH_UNIT ( ) NAMED_UNIT ( * ) SI_UNIT ( .MILLI., .METRE. ) );
#93 = SECURITY_CLASSIFICATION_LEVEL ( 'unclassified' ) ;
#94 = CC_DESIGN_DATE_AND_TIME_ASSIGNMENT ( #74, #75, ( #77 ) ) ;
#95 = PERSON_AND_ORGANIZATION_ROLE ( 'design_supplier' ) ;
#96 = EDGE_CURVE ( 'NONE', #257, #257, #84, .T. ) ;
#97 = DIRECTION ( 'NONE',  ( 1.000000000000000000, 0.0000000000000000000, 0.0000000000000000000 ) ) ;
#98 = ORIENTED_EDGE ( 'NONE', *, *, #123, .F. ) ;
#99 = PRODUCT_DEFINITION_SHAPE ( 'NONE', 'NONE',  #77 ) ;
#100 = EDGE_LOOP ( 'NONE', ( #59 ) ) ;
#101 = EDGE_LOOP ( 'NONE', ( #80 ) ) ;
#102 = CARTESIAN_POINT ( 'NONE',  ( 3.491481338843132862E-16, 0.0000000000000000000, 0.09999999999999997780 ) ) ;
#103 = CARTESIAN_POINT ( 'NONE',  ( -4.258655609362113435E-31, 0.0000000000000000000, -1.219727444046192488E-16 ) ) ;
#104 = DIRECTION ( 'NONE',  ( 0.0000000000000000000, 1.000000000000000000, 0.0000000000000000000 ) ) ;
#105 = CC_DESIGN_PERSON_AND_ORGANIZATION_ASSIGNMENT ( #203, #21, ( #168 ) ) ;
#106 = CIRCLE ( 'NONE', #136, 0.8181483474218598229 ) ;
#107 = DIRECTION ( 'NONE',  ( 1.000000000000000000, 0.0000000000000000000, -3.469446951953629177E-15 ) ) ;
#108 = DIRECTION ( 'NONE',  ( 0.0000000000000000000, -1.000000000000000000, 0.0000000000000000000 ) ) ;
#109 = FACE_OUTER_BOUND ( 'NONE', #76, .T. ) ;
#110 = CARTESIAN_POINT ( 'NONE',  ( 1.312796983405018394E-13, -1.999999999999991784, 37.60000000000000853 ) ) ;
#111 = COORDINATED_UNIVERSAL_TIME_OFFSET ( 1, 0, .AHEAD. ) ;
#112 = COORDINATED_UNIVERSAL_TIME_OFFSET ( 1, 0, .AHEAD. ) ;
#113 = APPROVAL_STATUS ( 'not_yet_approved' ) ;
#114 = ADVANCED_FACE ( 'NONE', ( #215, #175 ), #247, .F. ) ;
#115 = PERSON_AND_ORGANIZATION ( #126, #142 ) ;
#116 = PERSON_AND_ORGANIZATION_ROLE ( 'creator' ) ;
#117 = UNCERTAINTY_MEASURE_WITH_UNIT (LENGTH_MEASURE( 1.000000000000000082E-05 ), #92, 'distance_accuracy_value', 'NONE');
#118 = ORIENTED_EDGE ( 'NONE', *, *, #228, .T. ) ;
#119 = ORIENTED_EDGE ( 'NONE', *, *, #139, .T. ) ;
#120 = CIRCLE ( 'NONE', #8, 0.7500000000000000000 ) ;
#121 = EDGE_LOOP ( 'NONE', ( #41 ) ) ;
#122 = EDGE_LOOP ( 'NONE', ( #118 ) ) ;
#123 = EDGE_CURVE ( 'NONE', #17, #17, #170, .T. ) ;
#124 = DIRECTION ( 'NONE',  ( 1.000000000000000000, 0.0000000000000000000, -3.469446951953615372E-15 ) ) ;
#125 = AXIS2_PLACEMENT_3D ( 'NONE', #60, #151, #124 ) ;
#126 = PERSON ( 'UNSPECIFIED', 'UNSPECIFIED', 'UNSPECIFIED', ('UNSPECIFIED'), ('UNSPECIFIED'), ('UNSPECIFIED') ) ;
#127 = PLANE ( 'NONE',  #10 ) ;
#128 = CARTESIAN_POINT ( 'NONE',  ( 1.326762908760390423E-13, -2.449293598294670423E-16, 38.00000000000000000 ) ) ;
#129 = DIRECTION ( 'NONE',  ( 1.000000000000000000, 0.0000000000000000000, -3.469446951953615372E-15 ) ) ;
#130 = CC_DESIGN_APPROVAL ( #256, ( #168 ) ) ;
#131 = CYLINDRICAL_SURFACE ( 'NONE', #39, 0.7499999999999998890 ) ;
#132 = FACE_OUTER_BOUND ( 'NONE', #166, .T. ) ;
#133 = CARTESIAN_POINT ( 'NONE',  ( 1.326762908760390423E-13, -1.599999999999991651, 38.00000000000000000 ) ) ;
#134 = APPROVAL_STATUS ( 'not_yet_approved' ) ;
#135 = AXIS2_PLACEMENT_3D ( 'NONE', #25, #4, #249 ) ;
#136 = AXIS2_PLACEMENT_3D ( 'NONE', #155, #48, #9 ) ;
#137 = VERTEX_POINT ( 'NONE', #236 ) ;
#138 = CARTESIAN_POINT ( 'NONE',  ( 0.0000000000000000000, 0.0000000000000000000, 0.0000000000000000000 ) ) ;
#139 = EDGE_CURVE ( 'NONE', #237, #237, #34, .T. ) ;
#140 = CALENDAR_DATE ( 2021, 9, 12 ) ;
#141 = DIRECTION ( 'NONE',  ( 0.0000000000000000000, 0.0000000000000000000, 1.000000000000000000 ) ) ;
#142 = ORGANIZATION ( 'UNSPECIFIED', 'UNSPECIFIED', '' ) ;
#143 = AXIS2_PLACEMENT_3D ( 'NONE', #6, #231, #248 ) ;
#144 = PLANE ( 'NONE',  #158 ) ;
#145 = EDGE_LOOP ( 'NONE', ( #98 ) ) ;
#146 = LOCAL_TIME ( 13, 42, 16.00000000000000000, #156 ) ;
#147 = EDGE_LOOP ( 'NONE', ( #58 ) ) ;
#148 = CIRCLE ( 'NONE', #47, 1.999999999999991340 ) ;
#149 = ORIENTED_EDGE ( 'NONE', *, *, #40, .F. ) ;
#150 = ADVANCED_FACE ( 'NONE', ( #64, #198 ), #72, .T. ) ;
#151 = DIRECTION ( 'NONE',  ( 3.491481338843133355E-15, -0.0000000000000000000, 1.000000000000000000 ) ) ;
#152 = CARTESIAN_POINT ( 'NONE',  ( 1.117274028429802989E-14, 0.0000000000000000000, 3.200000000000001066 ) ) ;
#153 = DIRECTION ( 'NONE',  ( 0.0000000000000000000, -1.000000000000000000, 0.0000000000000000000 ) ) ;
#154 = CARTESIAN_POINT ( 'NONE',  ( 1.326762908760390423E-13, -2.449293598294670423E-16, 38.00000000000000000 ) ) ;
#155 = CARTESIAN_POINT ( 'NONE',  ( 1.298006401652328627E-14, 0.0000000000000000000, 3.717638090205029666 ) ) ;
#156 = COORDINATED_UNIVERSAL_TIME_OFFSET ( 1, 0, .AHEAD. ) ;
#157 = CARTESIAN_POINT ( 'NONE',  ( 0.7500000000000109912, 0.0000000000000000000, 3.199999999999998401 ) ) ;
#158 = AXIS2_PLACEMENT_3D ( 'NONE', #171, #165, #224 ) ;
#159 = CC_DESIGN_PERSON_AND_ORGANIZATION_ASSIGNMENT ( #255, #95, ( #168 ) ) ;
#160 = APPROVAL_DATE_TIME ( #16, #31 ) ;
#161 = APPLICATION_PROTOCOL_DEFINITION ( 'international standard', 'config_control_design', 1994, #251 ) ;
#162 = DATE_AND_TIME ( #188, #189 ) ;
#163 = SECURITY_CLASSIFICATION ( '', '', #93 ) ;
#164 = AXIS2_PLACEMENT_3D ( 'NONE', #103, #29, #45 ) ;
#165 = DIRECTION ( 'NONE',  ( 3.491481338843133355E-15, -1.182417599176753665E-16, 1.000000000000000000 ) ) ;
#166 = EDGE_LOOP ( 'NONE', ( #167 ) ) ;
#167 = ORIENTED_EDGE ( 'NONE', *, *, #96, .T. ) ;
#168 = PRODUCT_DEFINITION_FORMATION_WITH_SPECIFIED_SOURCE ( 'ANY', '', #5, .NOT_KNOWN. ) ;
#169 = EDGE_LOOP ( 'NONE', ( #3 ) ) ;
#170 = CIRCLE ( 'NONE', #253, 1.999999999999991784 ) ;
#171 = CARTESIAN_POINT ( 'NONE',  ( 1.117274028429802989E-14, 3.869883885305635257E-15, 3.200000000000001066 ) ) ;
#172 = CARTESIAN_POINT ( 'NONE',  ( 0.0000000000000000000, 0.0000000000000000000, 0.0000000000000000000 ) ) ;
#173 = FACE_OUTER_BOUND ( 'NONE', #145, .T. ) ;
#174 = LOCAL_TIME ( 13, 42, 16.00000000000000000, #51 ) ;
#175 = FACE_OUTER_BOUND ( 'NONE', #1, .T. ) ;
#176 = DIRECTION ( 'NONE',  ( 3.491481338843133355E-15, -1.182417599176753665E-16, 1.000000000000000000 ) ) ;
#177 = PLANE ( 'NONE',  #241 ) ;
#178 = PRODUCT_RELATED_PRODUCT_CATEGORY ( 'detail', '', ( #5 ) ) ;
#179 = CONICAL_SURFACE ( 'NONE', #243, 5.649999999999997691, 0.2617993877991427465 ) ;
#180 =( NAMED_UNIT ( * ) SI_UNIT ( $, .STERADIAN. ) SOLID_ANGLE_UNIT ( ) );
#181 = APPROVAL_ROLE ( '' ) ;
#182 = ADVANCED_BREP_SHAPE_REPRESENTATION ( '392812', ( #69, #65, #32 ), #86 ) ;
#183 = CARTESIAN_POINT ( 'NONE',  ( 2.000000000000019540, 0.0000000000000000000, 8.128368504635970382 ) ) ;
#184 = CALENDAR_DATE ( 2021, 9, 12 ) ;
#185 = ADVANCED_FACE ( 'NONE', ( #132, #12 ), #23, .T. ) ;
#186 =( NAMED_UNIT ( * ) PLANE_ANGLE_UNIT ( ) SI_UNIT ( $, .RADIAN. ) );
#187 = SHAPE_DEFINITION_REPRESENTATION ( #99, #182 ) ;
#188 = CALENDAR_DATE ( 2021, 9, 12 ) ;
#189 = LOCAL_TIME ( 13, 42, 16.00000000000000000, #20 ) ;
#190 = EDGE_LOOP ( 'NONE', ( #119 ) ) ;
#191 = EDGE_LOOP ( 'NONE', ( #227 ) ) ;
#192 = EDGE_LOOP ( 'NONE', ( #78 ) ) ;
#193 = ORIENTED_EDGE ( 'NONE', *, *, #199, .T. ) ;
#194 = AXIS2_PLACEMENT_3D ( 'NONE', #152, #46, #129 ) ;
#195 = DIRECTION ( 'NONE',  ( 3.491481338843133355E-15, -0.0000000000000000000, 1.000000000000000000 ) ) ;
#196 = DIRECTION ( 'NONE',  ( 3.491481338843133355E-15, -1.182417599176753665E-16, 1.000000000000000000 ) ) ;
#197 = DIRECTION ( 'NONE',  ( 3.491481338843133355E-15, 1.209338714158010771E-15, 1.000000000000000000 ) ) ;
#198 = FACE_OUTER_BOUND ( 'NONE', #100, .T. ) ;
#199 = EDGE_CURVE ( 'NONE', #201, #201, #259, .T. ) ;
#200 = CARTESIAN_POINT ( 'NONE',  ( 1.117274028429803463E-14, 3.869883885305636046E-15, 3.200000000000002398 ) ) ;
#201 = VERTEX_POINT ( 'NONE', #15 ) ;
#202 = APPROVAL_STATUS ( 'not_yet_approved' ) ;
#203 = PERSON_AND_ORGANIZATION ( #126, #142 ) ;
#204 = PERSON_AND_ORGANIZATION ( #126, #142 ) ;
#205 = APPROVAL_ROLE ( '' ) ;
#206 = PERSON_AND_ORGANIZATION ( #126, #142 ) ;
#207 = APPROVAL_PERSON_ORGANIZATION ( #239, #256, #181 ) ;
#208 = AXIS2_PLACEMENT_3D ( 'NONE', #154, #176, #108 ) ;
#209 = EDGE_LOOP ( 'NONE', ( #79 ) ) ;
#210 = FACE_OUTER_BOUND ( 'NONE', #147, .T. ) ;
#211 = CARTESIAN_POINT ( 'NONE',  ( 2.838004694917677700E-14, 0.0000000000000000000, 8.128368504635977487 ) ) ;
#212 = CC_DESIGN_PERSON_AND_ORGANIZATION_ASSIGNMENT ( #204, #70, ( #163 ) ) ;
#213 = DIRECTION ( 'NONE',  ( -3.491481338843133355E-15, 1.182417599176753665E-16, -1.000000000000000000 ) ) ;
#214 = FACE_OUTER_BOUND ( 'NONE', #121, .T. ) ;
#215 = FACE_OUTER_BOUND ( 'NONE', #42, .T. ) ;
#216 = VERTEX_POINT ( 'NONE', #183 ) ;
#217 = APPROVAL_ROLE ( '' ) ;
#218 = APPROVAL ( #202, 'UNSPECIFIED' ) ;
#219 = CARTESIAN_POINT ( 'NONE',  ( 0.8181483474218728125, 0.0000000000000000000, 3.717638090205026558 ) ) ;
#220 = PERSON_AND_ORGANIZATION ( #126, #142 ) ;
#221 = MECHANICAL_CONTEXT ( 'NONE', #251, 'mechanical' ) ;
#222 = EDGE_CURVE ( 'NONE', #216, #216, #148, .T. ) ;
#223 = APPROVAL_DATE_TIME ( #35, #256 ) ;
#224 = DIRECTION ( 'NONE',  ( -4.128388982245335630E-31, -1.000000000000000000, -1.182417599176753665E-16 ) ) ;
#225 = ADVANCED_FACE ( 'NONE', ( #173, #68 ), #234, .T. ) ;
#226 = ORIENTED_EDGE ( 'NONE', *, *, #222, .T. ) ;
#227 = ORIENTED_EDGE ( 'NONE', *, *, #222, .F. ) ;
#228 = EDGE_CURVE ( 'NONE', #137, #137, #120, .T. ) ;
#229 = CLOSED_SHELL ( 'NONE', ( #225, #150, #244, #260, #114, #13 ) ) ;
#230 = APPROVAL_PERSON_ORGANIZATION ( #220, #31, #217 ) ;
#231 = DIRECTION ( 'NONE',  ( 3.491481338843133355E-15, -1.182417599176753665E-16, 1.000000000000000000 ) ) ;
#232 = DIRECTION ( 'NONE',  ( 3.491481338843133355E-15, -0.0000000000000000000, 1.000000000000000000 ) ) ;
#233 = CC_DESIGN_DATE_AND_TIME_ASSIGNMENT ( #258, #18, ( #163 ) ) ;
#234 = CYLINDRICAL_SURFACE ( 'NONE', #143, 1.999999999999991340 ) ;
#235 = CARTESIAN_POINT ( 'NONE',  ( 1.312796983405018394E-13, -1.976326558623979360E-16, 37.60000000000000853 ) ) ;
#236 = CARTESIAN_POINT ( 'NONE',  ( 0.7500000000000003331, 0.0000000000000000000, 0.09999999999999736877 ) ) ;
#237 = VERTEX_POINT ( 'NONE', #133 ) ;
#238 = CC_DESIGN_APPROVAL ( #31, ( #163 ) ) ;
#239 = PERSON_AND_ORGANIZATION ( #126, #142 ) ;
#240 = CIRCLE ( 'NONE', #125, 0.7499999999999997780 ) ;
#241 = AXIS2_PLACEMENT_3D ( 'NONE', #200, #245, #250 ) ;
#242 = ORIENTED_EDGE ( 'NONE', *, *, #24, .F. ) ;
#243 = AXIS2_PLACEMENT_3D ( 'NONE', #54, #36, #254 ) ;
#244 = ADVANCED_FACE ( 'NONE', ( #44 ), #127, .F. ) ;
#245 = DIRECTION ( 'NONE',  ( -3.491481338843133355E-15, -1.209338714158010771E-15, -1.000000000000000000 ) ) ;
#246 = APPROVAL_PERSON_ORGANIZATION ( #115, #218, #205 ) ;
#247 = TOROIDAL_SURFACE ( 'NONE', #135, 2.750000000000000000, 2.000000000000000000 ) ;
#248 = DIRECTION ( 'NONE',  ( 0.0000000000000000000, -1.000000000000000000, 0.0000000000000000000 ) ) ;
#249 = DIRECTION ( 'NONE',  ( 1.000000000000000000, 0.0000000000000000000, -3.491481338843132961E-15 ) ) ;
#250 = DIRECTION ( 'NONE',  ( -4.222383552823244369E-30, 1.000000000000000000, -1.209338714158010771E-15 ) ) ;
#251 = APPLICATION_CONTEXT ( 'configuration controlled 3d designs of mechanical parts and assemblies' ) ;
#252 = DIRECTION ( 'NONE',  ( 1.000000000000000000, 0.0000000000000000000, -3.491481338843133355E-15 ) ) ;
#253 = AXIS2_PLACEMENT_3D ( 'NONE', #235, #196, #153 ) ;
#254 = DIRECTION ( 'NONE',  ( 1.000000000000000000, 0.0000000000000000000, -3.684368444552512179E-15 ) ) ;
#255 = PERSON_AND_ORGANIZATION ( #126, #142 ) ;
#256 = APPROVAL ( #113, 'UNSPECIFIED' ) ;
#257 = VERTEX_POINT ( 'NONE', #91 ) ;
#258 = DATE_AND_TIME ( #184, #83 ) ;
#259 = CIRCLE ( 'NONE', #194, 0.7499999999999997780 ) ;
#260 = ADVANCED_FACE ( 'NONE', ( #50, #109 ), #179, .T. ) ;
#261 = APPROVAL_DATE_TIME ( #162, #218 ) ;
#262 = LOCAL_TIME ( 13, 42, 16.00000000000000000, #111 ) ;
#263 = CC_DESIGN_PERSON_AND_ORGANIZATION_ASSIGNMENT ( #37, #57, ( #5 ) ) ;
ENDSEC;
END-ISO-10303-21;
