ISO-10303-21;
HEADER;
FILE_DESCRIPTION (( 'STEP AP203' ),
    '1' );
FILE_NAME ('392811.step',
    '2021-12-09T12:42:15',
    ( '' ),
    ( '' ),
    'SwSTEP 2.0',
    'SolidWorks 2019',
    '' );
FILE_SCHEMA (( 'CONFIG_CONTROL_DESIGN' ));
ENDSEC;

DATA;
#1 = ADVANCED_FACE ( 'NONE', ( #135, #31 ), #132, .T. ) ;
#2 = DIRECTION ( 'NONE',  ( 3.491481338843133355E-15, -1.217805196917478768E-16, 1.000000000000000000 ) ) ;
#3 = PERSON_AND_ORGANIZATION_ROLE ( 'creator' ) ;
#4 = TOROIDAL_SURFACE ( 'NONE', #216, 0.3000000000000000444, 0.2000000000000000944 ) ;
#5 = AXIS2_PLACEMENT_3D ( 'NONE', #80, #81, #102 ) ;
#6 = UNCERTAINTY_MEASURE_WITH_UNIT (LENGTH_MEASURE( 1.000000000000000082E-05 ), #7, 'distance_accuracy_value', 'NONE');
#7 =( LENGTH_UNIT ( ) NAMED_UNIT ( * ) SI_UNIT ( .MILLI., .METRE. ) );
#8 = COORDINATED_UNIVERSAL_TIME_OFFSET ( 1, 0, .AHEAD. ) ;
#9 = DIRECTION ( 'NONE',  ( -3.491481338843133355E-15, 1.217805196917478768E-16, -1.000000000000000000 ) ) ;
#10 = CARTESIAN_POINT ( 'NONE',  ( 0.0000000000000000000, 0.0000000000000000000, 0.0000000000000000000 ) ) ;
#11 = DIRECTION ( 'NONE',  ( -3.491481338843133355E-15, 0.0000000000000000000, -1.000000000000000000 ) ) ;
#12 = DIRECTION ( 'NONE',  ( 3.491481338843133355E-15, -1.217805196917478768E-16, 1.000000000000000000 ) ) ;
#13 = EDGE_CURVE ( 'NONE', #144, #144, #147, .T. ) ;
#14 = ORIENTED_EDGE ( 'NONE', *, *, #99, .T. ) ;
#15 = PERSON ( 'UNSPECIFIED', 'UNSPECIFIED', 'UNSPECIFIED', ('UNSPECIFIED'), ('UNSPECIFIED'), ('UNSPECIFIED') ) ;
#16 = EDGE_LOOP ( 'NONE', ( #190 ) ) ;
#17 = CARTESIAN_POINT ( 'NONE',  ( 2.000000000000019540, 0.0000000000000000000, 8.061381206528215770 ) ) ;
#18 = CARTESIAN_POINT ( 'NONE',  ( 7.114643502369118093E-14, 0.0000000000000000000, 20.37714887150587728 ) ) ;
#19 = VERTEX_POINT ( 'NONE', #181 ) ;
#20 = VERTEX_POINT ( 'NONE', #179 ) ;
#21 = AXIS2_PLACEMENT_3D ( 'NONE', #146, #180, #104 ) ;
#22 = CC_DESIGN_PERSON_AND_ORGANIZATION_ASSIGNMENT ( #189, #52, ( #226 ) ) ;
#23 = ORGANIZATION ( 'UNSPECIFIED', 'UNSPECIFIED', '' ) ;
#24 = CYLINDRICAL_SURFACE ( 'NONE', #65, 1.999999999999991340 ) ;
#25 = VERTEX_POINT ( 'NONE', #204 ) ;
#26 = APPROVAL_STATUS ( 'not_yet_approved' ) ;
#27 = CC_DESIGN_APPROVAL ( #70, ( #174 ) ) ;
#28 = ADVANCED_BREP_SHAPE_REPRESENTATION ( '392811', ( #47, #140, #213 ), #236 ) ;
#29 = DIRECTION ( 'NONE',  ( 1.000000000000000000, 0.0000000000000000000, 0.0000000000000000000 ) ) ;
#30 = CIRCLE ( 'NONE', #152, 0.3000000000000000444 ) ;
#31 = FACE_OUTER_BOUND ( 'NONE', #235, .T. ) ;
#32 = CALENDAR_DATE ( 2021, 9, 12 ) ;
#33 = CARTESIAN_POINT ( 'NONE',  ( 7.681258945454894959E-15, 0.0000000000000000000, 2.200000000000000178 ) ) ;
#34 = PERSON_AND_ORGANIZATION ( #15, #23 ) ;
#35 = CC_DESIGN_DATE_AND_TIME_ASSIGNMENT ( #85, #245, ( #51 ) ) ;
#36 = DIRECTION ( 'NONE',  ( 3.491481338843133355E-15, -1.217805196917478768E-16, 1.000000000000000000 ) ) ;
#37 = ORIENTED_EDGE ( 'NONE', *, *, #62, .T. ) ;
#38 = EDGE_LOOP ( 'NONE', ( #14 ) ) ;
#39 = DIRECTION ( 'NONE',  ( 4.251944119383564073E-31, 1.000000000000000000, 1.217805196917478768E-16 ) ) ;
#40 = DIRECTION ( 'NONE',  ( 1.000000000000000000, 0.0000000000000000000, -3.469446951953614189E-15 ) ) ;
#41 = DIRECTION ( 'NONE',  ( 3.491481338843133355E-15, -0.0000000000000000000, 1.000000000000000000 ) ) ;
#42 = CARTESIAN_POINT ( 'NONE',  ( 9.488582677680151340E-15, 0.0000000000000000000, 2.717638090205029222 ) ) ;
#43 = PLANE ( 'NONE',  #206 ) ;
#44 = APPLICATION_PROTOCOL_DEFINITION ( 'international standard', 'config_control_design', 1994, #243 ) ;
#45 = ADVANCED_FACE ( 'NONE', ( #69, #230 ), #212, .F. ) ;
#46 = DESIGN_CONTEXT ( 'detailed design', #243, 'design' ) ;
#47 = MANIFOLD_SOLID_BREP ( 'Corps-Déplacer/Copier1[1]', #96 ) ;
#48 = EDGE_CURVE ( 'NONE', #20, #20, #92, .T. ) ;
#49 =( NAMED_UNIT ( * ) PLANE_ANGLE_UNIT ( ) SI_UNIT ( $, .RADIAN. ) );
#50 = CALENDAR_DATE ( 2021, 9, 12 ) ;
#51 = PRODUCT_DEFINITION ( 'UNKNOWN', '', #174, #46 ) ;
#52 = PERSON_AND_ORGANIZATION_ROLE ( 'design_owner' ) ;
#53 = COORDINATED_UNIVERSAL_TIME_OFFSET ( 1, 0, .AHEAD. ) ;
#54 = PLANE ( 'NONE',  #172 ) ;
#55 = LOCAL_TIME ( 13, 42, 15.00000000000000000, #127 ) ;
#56 = EDGE_LOOP ( 'NONE', ( #131 ) ) ;
#57 = DIRECTION ( 'NONE',  ( 3.491481338843133355E-15, 1.870369656879593362E-15, 1.000000000000000000 ) ) ;
#58 = DIRECTION ( 'NONE',  ( 1.000000000000000000, 0.0000000000000000000, -3.816616478444019910E-15 ) ) ;
#59 = AXIS2_PLACEMENT_3D ( 'NONE', #169, #11, #253 ) ;
#60 = FACE_OUTER_BOUND ( 'NONE', #158, .T. ) ;
#61 = APPROVAL_PERSON_ORGANIZATION ( #209, #70, #148 ) ;
#62 = EDGE_CURVE ( 'NONE', #19, #19, #71, .T. ) ;
#63 = CARTESIAN_POINT ( 'NONE',  ( 7.681258945454896537E-15, 0.0000000000000000000, 2.200000000000000622 ) ) ;
#64 = DIRECTION ( 'NONE',  ( 1.000000000000000000, 0.0000000000000000000, -3.273063162220392396E-15 ) ) ;
#65 = AXIS2_PLACEMENT_3D ( 'NONE', #261, #197, #78 ) ;
#66 = ADVANCED_FACE ( 'NONE', ( #175 ), #54, .F. ) ;
#67 = PERSON_AND_ORGANIZATION_ROLE ( 'design_supplier' ) ;
#68 = COORDINATED_UNIVERSAL_TIME_OFFSET ( 1, 0, .AHEAD. ) ;
#69 = FACE_OUTER_BOUND ( 'NONE', #38, .T. ) ;
#70 = APPROVAL ( #134, 'UNSPECIFIED' ) ;
#71 = CIRCLE ( 'NONE', #167, 1.999999999999991784 ) ;
#72 = PERSON_AND_ORGANIZATION ( #15, #23 ) ;
#73 = CARTESIAN_POINT ( 'NONE',  ( 1.326762908760390423E-13, -2.449293598294670423E-16, 38.00000000000000000 ) ) ;
#74 = EDGE_LOOP ( 'NONE', ( #258 ) ) ;
#75 = ADVANCED_FACE ( 'NONE', ( #260, #183 ), #184, .T. ) ;
#76 = EDGE_LOOP ( 'NONE', ( #257 ) ) ;
#77 = DIRECTION ( 'NONE',  ( 3.491481338843133355E-15, -0.0000000000000000000, 1.000000000000000000 ) ) ;
#78 = DIRECTION ( 'NONE',  ( 0.0000000000000000000, -1.000000000000000000, 0.0000000000000000000 ) ) ;
#79 = APPROVAL ( #26, 'UNSPECIFIED' ) ;
#80 = CARTESIAN_POINT ( 'NONE',  ( 7.681258945454901270E-15, 4.114813245135110287E-15, 2.200000000000002398 ) ) ;
#81 = DIRECTION ( 'NONE',  ( -3.491481338843133355E-15, -1.870369656879593362E-15, -1.000000000000000000 ) ) ;
#82 = DIRECTION ( 'NONE',  ( 6.530360753733534361E-30, -1.000000000000000000, 1.870369656879593362E-15 ) ) ;
#83 = APPLICATION_CONTEXT ( 'configuration controlled 3d designs of mechanical parts and assemblies' ) ;
#84 = PERSON_AND_ORGANIZATION ( #15, #23 ) ;
#85 = DATE_AND_TIME ( #50, #201 ) ;
#86 = AXIS2_PLACEMENT_3D ( 'NONE', #125, #57, #82 ) ;
#87 = CALENDAR_DATE ( 2021, 9, 12 ) ;
#88 = CC_DESIGN_DATE_AND_TIME_ASSIGNMENT ( #177, #155, ( #251 ) ) ;
#89 = EDGE_LOOP ( 'NONE', ( #171 ) ) ;
#90 = PERSON_AND_ORGANIZATION_ROLE ( 'creator' ) ;
#91 = DIRECTION ( 'NONE',  ( 1.000000000000000000, 0.0000000000000000000, -3.491481338843133355E-15 ) ) ;
#92 = CIRCLE ( 'NONE', #246, 1.599999999999991429 ) ;
#93 = DIRECTION ( 'NONE',  ( 0.0000000000000000000, -1.000000000000000000, 0.0000000000000000000 ) ) ;
#94 = EDGE_LOOP ( 'NONE', ( #95 ) ) ;
#95 = ORIENTED_EDGE ( 'NONE', *, *, #218, .T. ) ;
#96 = CLOSED_SHELL ( 'NONE', ( #198, #1, #66, #114, #45, #208 ) ) ;
#97 = CARTESIAN_POINT ( 'NONE',  ( 1.326762908760390423E-13, -2.449293598294670423E-16, 38.00000000000000000 ) ) ;
#98 = CARTESIAN_POINT ( 'NONE',  ( 0.0000000000000000000, 0.0000000000000000000, 0.0000000000000000000 ) ) ;
#99 = EDGE_CURVE ( 'NONE', #162, #162, #120, .T. ) ;
#100 = FACE_OUTER_BOUND ( 'NONE', #111, .T. ) ;
#101 = AXIS2_PLACEMENT_3D ( 'NONE', #63, #262, #263 ) ;
#102 = DIRECTION ( 'NONE',  ( -6.530360753733534361E-30, 1.000000000000000000, -1.870369656879593362E-15 ) ) ;
#103 = APPROVAL_PERSON_ORGANIZATION ( #72, #79, #166 ) ;
#104 = DIRECTION ( 'NONE',  ( 1.000000000000000000, 0.0000000000000000000, -3.469446951953613400E-15 ) ) ;
#105 = APPROVAL_DATE_TIME ( #203, #70 ) ;
#106 = COORDINATED_UNIVERSAL_TIME_OFFSET ( 1, 0, .AHEAD. ) ;
#107 = PRODUCT_DEFINITION_SHAPE ( 'NONE', 'NONE',  #51 ) ;
#108 = MECHANICAL_CONTEXT ( 'NONE', #83, 'mechanical' ) ;
#109 = CARTESIAN_POINT ( 'NONE',  ( 1.312796983405018394E-13, -1.962171519527689713E-16, 37.60000000000000853 ) ) ;
#110 = VERTEX_POINT ( 'NONE', #205 ) ;
#111 = EDGE_LOOP ( 'NONE', ( #176 ) ) ;
#112 = CARTESIAN_POINT ( 'NONE',  ( 1.312796983405018394E-13, -1.962171519527689713E-16, 37.60000000000000853 ) ) ;
#113 = ORIENTED_EDGE ( 'NONE', *, *, #182, .F. ) ;
#114 = ADVANCED_FACE ( 'NONE', ( #145, #100 ), #259, .T. ) ;
#115 = DATE_AND_TIME ( #157, #138 ) ;
#116 = EDGE_LOOP ( 'NONE', ( #193 ) ) ;
#117 = CARTESIAN_POINT ( 'NONE',  ( 6.982962677686267697E-16, 0.0000000000000000000, 0.2000000000000000389 ) ) ;
#118 = CIRCLE ( 'NONE', #21, 0.5000000000000001110 ) ;
#119 = PRODUCT_RELATED_PRODUCT_CATEGORY ( 'detail', '', ( #226 ) ) ;
#120 = CIRCLE ( 'NONE', #101, 0.5000000000000000000 ) ;
#121 = FACE_OUTER_BOUND ( 'NONE', #76, .T. ) ;
#122 = CARTESIAN_POINT ( 'NONE',  ( 7.681258945454896537E-15, 0.0000000000000000000, 2.200000000000000622 ) ) ;
#123 = DIRECTION ( 'NONE',  ( -3.491481338843133355E-15, 1.217805196917478768E-16, -1.000000000000000000 ) ) ;
#124 = AXIS2_PLACEMENT_3D ( 'NONE', #18, #196, #64 ) ;
#125 = CARTESIAN_POINT ( 'NONE',  ( -6.530360753733506335E-30, 1.999999999999991340, -1.870369656879585079E-15 ) ) ;
#126 = EDGE_CURVE ( 'NONE', #25, #25, #250, .T. ) ;
#127 = COORDINATED_UNIVERSAL_TIME_OFFSET ( 1, 0, .AHEAD. ) ;
#128 = ADVANCED_FACE ( 'NONE', ( #242 ), #220, .F. ) ;
#129 = CC_DESIGN_SECURITY_CLASSIFICATION ( #251, ( #174 ) ) ;
#130 = APPLICATION_PROTOCOL_DEFINITION ( 'international standard', 'config_control_design', 1994, #83 ) ;
#131 = ORIENTED_EDGE ( 'NONE', *, *, #149, .T. ) ;
#132 = CONICAL_SURFACE ( 'NONE', #224, 1.999999999999991340, 0.7853981633974599363 ) ;
#133 = CALENDAR_DATE ( 2021, 9, 12 ) ;
#134 = APPROVAL_STATUS ( 'not_yet_approved' ) ;
#135 = FACE_BOUND ( 'NONE', #156, .T. ) ;
#136 = PERSON_AND_ORGANIZATION ( #15, #23 ) ;
#137 = AXIS2_PLACEMENT_3D ( 'NONE', #122, #239, #40 ) ;
#138 = LOCAL_TIME ( 13, 42, 15.00000000000000000, #53 ) ;
#139 = EDGE_LOOP ( 'NONE', ( #187 ) ) ;
#140 = MANIFOLD_SOLID_BREP ( 'Corps-Déplacer/Copier1[2]', #200 ) ;
#141 = DIRECTION ( 'NONE',  ( 3.491481338843133355E-15, -0.0000000000000000000, 1.000000000000000000 ) ) ;
#142 = FACE_OUTER_BOUND ( 'NONE', #116, .T. ) ;
#143 = CC_DESIGN_APPROVAL ( #165, ( #251 ) ) ;
#144 = VERTEX_POINT ( 'NONE', #17 ) ;
#145 = FACE_BOUND ( 'NONE', #94, .T. ) ;
#146 = CARTESIAN_POINT ( 'NONE',  ( 6.982962677686267697E-16, 0.0000000000000000000, 0.2000000000000000389 ) ) ;
#147 = CIRCLE ( 'NONE', #59, 1.999999999999991340 ) ;
#148 = APPROVAL_ROLE ( '' ) ;
#149 = EDGE_CURVE ( 'NONE', #210, #210, #118, .T. ) ;
#150 = DIRECTION ( 'NONE',  ( 0.0000000000000000000, 0.0000000000000000000, 1.000000000000000000 ) ) ;
#151 = EDGE_LOOP ( 'NONE', ( #188 ) ) ;
#152 = AXIS2_PLACEMENT_3D ( 'NONE', #221, #77, #160 ) ;
#153 = DIRECTION ( 'NONE',  ( 0.0000000000000000000, -1.000000000000000000, 0.0000000000000000000 ) ) ;
#154 = CC_DESIGN_PERSON_AND_ORGANIZATION_ASSIGNMENT ( #164, #247, ( #251 ) ) ;
#155 = DATE_TIME_ROLE ( 'classification_date' ) ;
#156 = EDGE_LOOP ( 'NONE', ( #178 ) ) ;
#157 = CALENDAR_DATE ( 2021, 9, 12 ) ;
#158 = EDGE_LOOP ( 'NONE', ( #256 ) ) ;
#159 = APPROVAL_STATUS ( 'not_yet_approved' ) ;
#160 = DIRECTION ( 'NONE',  ( 1.000000000000000000, 0.0000000000000000000, -3.491481338843132961E-15 ) ) ;
#161 = DIRECTION ( 'NONE',  ( 1.000000000000000000, 0.0000000000000000000, -3.491481338843133355E-15 ) ) ;
#162 = VERTEX_POINT ( 'NONE', #199 ) ;
#163 = FACE_OUTER_BOUND ( 'NONE', #89, .T. ) ;
#164 = PERSON_AND_ORGANIZATION ( #15, #23 ) ;
#165 = APPROVAL ( #159, 'UNSPECIFIED' ) ;
#166 = APPROVAL_ROLE ( '' ) ;
#167 = AXIS2_PLACEMENT_3D ( 'NONE', #112, #12, #93 ) ;
#168 = CC_DESIGN_PERSON_AND_ORGANIZATION_ASSIGNMENT ( #84, #67, ( #174 ) ) ;
#169 = CARTESIAN_POINT ( 'NONE',  ( 2.814616204789403506E-14, 0.0000000000000000000, 8.061381206528222876 ) ) ;
#170 = APPROVAL_DATE_TIME ( #228, #79 ) ;
#171 = ORIENTED_EDGE ( 'NONE', *, *, #13, .F. ) ;
#172 = AXIS2_PLACEMENT_3D ( 'NONE', #97, #123, #39 ) ;
#173 = CC_DESIGN_PERSON_AND_ORGANIZATION_ASSIGNMENT ( #34, #90, ( #51 ) ) ;
#174 = PRODUCT_DEFINITION_FORMATION_WITH_SPECIFIED_SOURCE ( 'ANY', '', #226, .NOT_KNOWN. ) ;
#175 = FACE_OUTER_BOUND ( 'NONE', #16, .T. ) ;
#176 = ORIENTED_EDGE ( 'NONE', *, *, #13, .T. ) ;
#177 = DATE_AND_TIME ( #87, #225 ) ;
#178 = ORIENTED_EDGE ( 'NONE', *, *, #48, .F. ) ;
#179 = CARTESIAN_POINT ( 'NONE',  ( 1.326762908760390423E-13, -1.599999999999991651, 38.00000000000000000 ) ) ;
#180 = DIRECTION ( 'NONE',  ( 3.491481338843133355E-15, -0.0000000000000000000, 1.000000000000000000 ) ) ;
#181 = CARTESIAN_POINT ( 'NONE',  ( 1.312796983405018394E-13, -1.999999999999991784, 37.60000000000000853 ) ) ;
#182 = EDGE_CURVE ( 'NONE', #110, #110, #30, .T. ) ;
#183 = FACE_OUTER_BOUND ( 'NONE', #207, .T. ) ;
#184 = CYLINDRICAL_SURFACE ( 'NONE', #229, 0.5000000000000000000 ) ;
#185 = CIRCLE ( 'NONE', #240, 0.5681483474218600449 ) ;
#186 = CC_DESIGN_PERSON_AND_ORGANIZATION_ASSIGNMENT ( #248, #3, ( #174 ) ) ;
#187 = ORIENTED_EDGE ( 'NONE', *, *, #99, .F. ) ;
#188 = ORIENTED_EDGE ( 'NONE', *, *, #218, .F. ) ;
#189 = PERSON_AND_ORGANIZATION ( #15, #23 ) ;
#190 = ORIENTED_EDGE ( 'NONE', *, *, #48, .T. ) ;
#191 = APPROVAL_PERSON_ORGANIZATION ( #136, #165, #232 ) ;
#192 = SHAPE_DEFINITION_REPRESENTATION ( #107, #28 ) ;
#193 = ORIENTED_EDGE ( 'NONE', *, *, #149, .F. ) ;
#194 = DIRECTION ( 'NONE',  ( 3.491481338843133355E-15, -0.0000000000000000000, 1.000000000000000000 ) ) ;
#195 = AXIS2_PLACEMENT_3D ( 'NONE', #33, #211, #91 ) ;
#196 = DIRECTION ( 'NONE',  ( 3.491481338843133355E-15, -0.0000000000000000000, 1.000000000000000000 ) ) ;
#197 = DIRECTION ( 'NONE',  ( 3.491481338843133355E-15, -1.217805196917478768E-16, 1.000000000000000000 ) ) ;
#198 = ADVANCED_FACE ( 'NONE', ( #121, #163 ), #24, .T. ) ;
#199 = CARTESIAN_POINT ( 'NONE',  ( 0.5000000000000076605, 0.0000000000000000000, 2.199999999999998845 ) ) ;
#200 = CLOSED_SHELL ( 'NONE', ( #214, #249, #75, #128 ) ) ;
#201 = LOCAL_TIME ( 13, 42, 15.00000000000000000, #106 ) ;
#202 = CARTESIAN_POINT ( 'NONE',  ( 7.681258945454896537E-15, 4.114813245135106342E-15, 2.200000000000000622 ) ) ;
#203 = DATE_AND_TIME ( #32, #55 ) ;
#204 = CARTESIAN_POINT ( 'NONE',  ( 0.5000000000000076605, 0.0000000000000000000, 2.199999999999998845 ) ) ;
#205 = CARTESIAN_POINT ( 'NONE',  ( 0.3000000000000000444, 0.0000000000000000000, -1.128759564589352839E-15 ) ) ;
#206 = AXIS2_PLACEMENT_3D ( 'NONE', #202, #2, #238 ) ;
#207 = EDGE_LOOP ( 'NONE', ( #233 ) ) ;
#208 = ADVANCED_FACE ( 'NONE', ( #215 ), #43, .F. ) ;
#209 = PERSON_AND_ORGANIZATION ( #15, #23 ) ;
#210 = VERTEX_POINT ( 'NONE', #252 ) ;
#211 = DIRECTION ( 'NONE',  ( 3.491481338843133355E-15, -0.0000000000000000000, 1.000000000000000000 ) ) ;
#212 = TOROIDAL_SURFACE ( 'NONE', #195, 2.500000000000000000, 2.000000000000000000 ) ;
#213 = AXIS2_PLACEMENT_3D ( 'NONE', #10, #150, #29 ) ;
#214 = ADVANCED_FACE ( 'NONE', ( #244 ), #237, .F. ) ;
#215 = FACE_OUTER_BOUND ( 'NONE', #139, .T. ) ;
#216 = AXIS2_PLACEMENT_3D ( 'NONE', #117, #194, #219 ) ;
#217 = LOCAL_TIME ( 13, 42, 15.00000000000000000, #68 ) ;
#218 = EDGE_CURVE ( 'NONE', #223, #223, #185, .T. ) ;
#219 = DIRECTION ( 'NONE',  ( 1.000000000000000000, 0.0000000000000000000, -3.491481338843133355E-15 ) ) ;
#220 = PLANE ( 'NONE',  #5 ) ;
#221 = CARTESIAN_POINT ( 'NONE',  ( -2.839103739574742144E-31, 0.0000000000000000000, -8.131516293641283255E-17 ) ) ;
#222 =( NAMED_UNIT ( * ) SI_UNIT ( $, .STERADIAN. ) SOLID_ANGLE_UNIT ( ) );
#223 = VERTEX_POINT ( 'NONE', #254 ) ;
#224 = AXIS2_PLACEMENT_3D ( 'NONE', #109, #9, #231 ) ;
#225 = LOCAL_TIME ( 13, 42, 15.00000000000000000, #8 ) ;
#226 = PRODUCT ( '392811', '392811', '', ( #108 ) ) ;
#227 = SECURITY_CLASSIFICATION_LEVEL ( 'unclassified' ) ;
#228 = DATE_AND_TIME ( #133, #217 ) ;
#229 = AXIS2_PLACEMENT_3D ( 'NONE', #98, #41, #161 ) ;
#230 = FACE_OUTER_BOUND ( 'NONE', #151, .T. ) ;
#231 = DIRECTION ( 'NONE',  ( 0.0000000000000000000, 1.000000000000000000, 0.0000000000000000000 ) ) ;
#232 = APPROVAL_ROLE ( '' ) ;
#233 = ORIENTED_EDGE ( 'NONE', *, *, #126, .F. ) ;
#234 = APPROVAL_DATE_TIME ( #115, #165 ) ;
#235 = EDGE_LOOP ( 'NONE', ( #37 ) ) ;
#236 =( GEOMETRIC_REPRESENTATION_CONTEXT ( 3 ) GLOBAL_UNCERTAINTY_ASSIGNED_CONTEXT ( ( #6 ) ) GLOBAL_UNIT_ASSIGNED_CONTEXT ( ( #7, #49, #222 ) ) REPRESENTATION_CONTEXT ( 'NONE', 'WORKASPACE' ) );
#237 = PLANE ( 'NONE',  #86 ) ;
#238 = DIRECTION ( 'NONE',  ( -4.251944119383564073E-31, -1.000000000000000000, -1.217805196917478768E-16 ) ) ;
#239 = DIRECTION ( 'NONE',  ( 3.491481338843133355E-15, -0.0000000000000000000, 1.000000000000000000 ) ) ;
#240 = AXIS2_PLACEMENT_3D ( 'NONE', #42, #141, #58 ) ;
#241 = CC_DESIGN_APPROVAL ( #79, ( #51 ) ) ;
#242 = FACE_OUTER_BOUND ( 'NONE', #74, .T. ) ;
#243 = APPLICATION_CONTEXT ( 'configuration controlled 3d designs of mechanical parts and assemblies' ) ;
#244 = FACE_OUTER_BOUND ( 'NONE', #255, .T. ) ;
#245 = DATE_TIME_ROLE ( 'creation_date' ) ;
#246 = AXIS2_PLACEMENT_3D ( 'NONE', #73, #36, #153 ) ;
#247 = PERSON_AND_ORGANIZATION_ROLE ( 'classification_officer' ) ;
#248 = PERSON_AND_ORGANIZATION ( #15, #23 ) ;
#249 = ADVANCED_FACE ( 'NONE', ( #60, #142 ), #4, .T. ) ;
#250 = CIRCLE ( 'NONE', #137, 0.5000000000000000000 ) ;
#251 = SECURITY_CLASSIFICATION ( '', '', #227 ) ;
#252 = CARTESIAN_POINT ( 'NONE',  ( 0.5000000000000007772, 0.0000000000000000000, 0.1999999999999982903 ) ) ;
#253 = DIRECTION ( 'NONE',  ( 1.000000000000000000, 0.0000000000000000000, -3.469446951953629177E-15 ) ) ;
#254 = CARTESIAN_POINT ( 'NONE',  ( 0.5681483474218695928, 0.0000000000000000000, 2.717638090205027002 ) ) ;
#255 = EDGE_LOOP ( 'NONE', ( #113 ) ) ;
#256 = ORIENTED_EDGE ( 'NONE', *, *, #182, .T. ) ;
#257 = ORIENTED_EDGE ( 'NONE', *, *, #62, .F. ) ;
#258 = ORIENTED_EDGE ( 'NONE', *, *, #126, .T. ) ;
#259 = CONICAL_SURFACE ( 'NONE', #124, 5.299999999999997158, 0.2617993877991426355 ) ;
#260 = FACE_OUTER_BOUND ( 'NONE', #56, .T. ) ;
#261 = CARTESIAN_POINT ( 'NONE',  ( 1.326762908760390423E-13, -2.449293598294670423E-16, 38.00000000000000000 ) ) ;
#262 = DIRECTION ( 'NONE',  ( 3.491481338843133355E-15, -0.0000000000000000000, 1.000000000000000000 ) ) ;
#263 = DIRECTION ( 'NONE',  ( 1.000000000000000000, 0.0000000000000000000, -3.469446951953614189E-15 ) ) ;
ENDSEC;
END-ISO-10303-21;
