ISO-10303-21;
HEADER;
FILE_DESCRIPTION (( 'STEP AP203' ),
    '1' );
FILE_NAME ('392810.step',
    '2021-12-09T12:42:14',
    ( '' ),
    ( '' ),
    'SwSTEP 2.0',
    'SolidWorks 2019',
    '' );
FILE_SCHEMA (( 'CONFIG_CONTROL_DESIGN' ));
ENDSEC;

DATA;
#1 = AXIS2_PLACEMENT_3D ( 'NONE', #109, #228, #3 ) ;
#2 = PRODUCT_DEFINITION_SHAPE ( 'NONE', 'NONE',  #37 ) ;
#3 = DIRECTION ( 'NONE',  ( 6.530360753733534361E-30, -1.000000000000000000, 1.870369656879593362E-15 ) ) ;
#4 = DIRECTION ( 'NONE',  ( 3.491481338843133355E-15, -0.0000000000000000000, 1.000000000000000000 ) ) ;
#5 = VERTEX_POINT ( 'NONE', #209 ) ;
#6 = CC_DESIGN_SECURITY_CLASSIFICATION ( #27, ( #72 ) ) ;
#7 = ORIENTED_EDGE ( 'NONE', *, *, #157, .F. ) ;
#8 = AXIS2_PLACEMENT_3D ( 'NONE', #179, #151, #51 ) ;
#9 = DATE_AND_TIME ( #188, #216 ) ;
#10 = FACE_OUTER_BOUND ( 'NONE', #189, .T. ) ;
#11 = CARTESIAN_POINT ( 'NONE',  ( 3.491481338843133848E-16, 0.0000000000000000000, 0.1000000000000000194 ) ) ;
#12 = DIRECTION ( 'NONE',  ( 0.0000000000000000000, -1.000000000000000000, 0.0000000000000000000 ) ) ;
#13 = AXIS2_PLACEMENT_3D ( 'NONE', #261, #52, #197 ) ;
#14 = DIRECTION ( 'NONE',  ( 3.491481338843133355E-15, -0.0000000000000000000, 1.000000000000000000 ) ) ;
#15 = CARTESIAN_POINT ( 'NONE',  ( 7.244947359871533371E-14, 0.0000000000000000000, 20.75035395226277402 ) ) ;
#16 = DIRECTION ( 'NONE',  ( 4.251944119383564073E-31, 1.000000000000000000, 1.217805196917478768E-16 ) ) ;
#17 = LOCAL_TIME ( 13, 42, 14.00000000000000000, #184 ) ;
#18 = EDGE_CURVE ( 'NONE', #260, #260, #174, .T. ) ;
#19 = CALENDAR_DATE ( 2021, 9, 12 ) ;
#20 = CC_DESIGN_PERSON_AND_ORGANIZATION_ASSIGNMENT ( #190, #62, ( #227 ) ) ;
#21 = AXIS2_PLACEMENT_3D ( 'NONE', #114, #112, #12 ) ;
#22 = CARTESIAN_POINT ( 'NONE',  ( 1.326762908760390423E-13, -1.599999999999991651, 38.00000000000000000 ) ) ;
#23 = MECHANICAL_CONTEXT ( 'NONE', #36, 'mechanical' ) ;
#24 = CARTESIAN_POINT ( 'NONE',  ( 1.312796983405018394E-13, -1.962171519527689713E-16, 37.60000000000000853 ) ) ;
#25 = APPROVAL_ROLE ( '' ) ;
#26 = DIRECTION ( 'NONE',  ( 0.0000000000000000000, 1.000000000000000000, 0.0000000000000000000 ) ) ;
#27 = SECURITY_CLASSIFICATION ( '', '', #182 ) ;
#28 = PERSON_AND_ORGANIZATION ( #207, #169 ) ;
#29 = CARTESIAN_POINT ( 'NONE',  ( 7.681258945454901270E-15, 4.114813245135110287E-15, 2.200000000000002398 ) ) ;
#30 = DIRECTION ( 'NONE',  ( 3.491481338843133355E-15, -0.0000000000000000000, 1.000000000000000000 ) ) ;
#31 = DIRECTION ( 'NONE',  ( 3.491481338843133355E-15, -0.0000000000000000000, 1.000000000000000000 ) ) ;
#32 = FACE_OUTER_BOUND ( 'NONE', #173, .T. ) ;
#33 = PERSON_AND_ORGANIZATION ( #207, #169 ) ;
#34 = FACE_OUTER_BOUND ( 'NONE', #147, .T. ) ;
#35 = ADVANCED_FACE ( 'NONE', ( #81 ), #215, .F. ) ;
#36 = APPLICATION_CONTEXT ( 'configuration controlled 3d designs of mechanical parts and assemblies' ) ;
#37 = PRODUCT_DEFINITION ( 'UNKNOWN', '', #72, #225 ) ;
#38 = DATE_TIME_ROLE ( 'creation_date' ) ;
#39 = CC_DESIGN_PERSON_AND_ORGANIZATION_ASSIGNMENT ( #160, #154, ( #72 ) ) ;
#40 = CLOSED_SHELL ( 'NONE', ( #78, #80, #122, #35 ) ) ;
#41 = EDGE_LOOP ( 'NONE', ( #232 ) ) ;
#42 = ORIENTED_EDGE ( 'NONE', *, *, #223, .F. ) ;
#43 = ORIENTED_EDGE ( 'NONE', *, *, #223, .T. ) ;
#44 = VERTEX_POINT ( 'NONE', #22 ) ;
#45 = EDGE_LOOP ( 'NONE', ( #253 ) ) ;
#46 = DIRECTION ( 'NONE',  ( -3.491481338843133355E-15, -1.870369656879593362E-15, -1.000000000000000000 ) ) ;
#47 = PLANE ( 'NONE',  #97 ) ;
#48 = PLANE ( 'NONE',  #180 ) ;
#49 = CIRCLE ( 'NONE', #8, 1.999999999999991784 ) ;
#50 = TOROIDAL_SURFACE ( 'NONE', #185, 0.4000000000000000222, 0.1000000000000001027 ) ;
#51 = DIRECTION ( 'NONE',  ( 0.0000000000000000000, -1.000000000000000000, 0.0000000000000000000 ) ) ;
#52 = DIRECTION ( 'NONE',  ( 3.491481338843133355E-15, -0.0000000000000000000, 1.000000000000000000 ) ) ;
#53 = CC_DESIGN_DATE_AND_TIME_ASSIGNMENT ( #202, #77, ( #27 ) ) ;
#54 = CIRCLE ( 'NONE', #79, 1.999999999999991340 ) ;
#55 = ADVANCED_FACE ( 'NONE', ( #145, #211 ), #113, .T. ) ;
#56 = COORDINATED_UNIVERSAL_TIME_OFFSET ( 1, 0, .AHEAD. ) ;
#57 = APPROVAL ( #246, 'UNSPECIFIED' ) ;
#58 = CARTESIAN_POINT ( 'NONE',  ( 7.681258945454896537E-15, 0.0000000000000000000, 2.200000000000000622 ) ) ;
#59 = PERSON_AND_ORGANIZATION ( #207, #169 ) ;
#60 = AXIS2_PLACEMENT_3D ( 'NONE', #87, #30, #165 ) ;
#61 = FACE_OUTER_BOUND ( 'NONE', #120, .T. ) ;
#62 = PERSON_AND_ORGANIZATION_ROLE ( 'design_owner' ) ;
#63 = DIRECTION ( 'NONE',  ( 1.000000000000000000, 0.0000000000000000000, -3.496552006265751011E-15 ) ) ;
#64 = VERTEX_POINT ( 'NONE', #167 ) ;
#65 = DIRECTION ( 'NONE',  ( -3.491481338843133355E-15, 1.217805196917478768E-16, -1.000000000000000000 ) ) ;
#66 = ORIENTED_EDGE ( 'NONE', *, *, #186, .F. ) ;
#67 = CIRCLE ( 'NONE', #106, 0.5000000000000000000 ) ;
#68 = APPLICATION_CONTEXT ( 'configuration controlled 3d designs of mechanical parts and assemblies' ) ;
#69 = DIRECTION ( 'NONE',  ( 1.000000000000000000, 0.0000000000000000000, -3.491481338843133355E-15 ) ) ;
#70 = FACE_BOUND ( 'NONE', #121, .T. ) ;
#71 = DIRECTION ( 'NONE',  ( 0.0000000000000000000, -1.000000000000000000, 0.0000000000000000000 ) ) ;
#72 = PRODUCT_DEFINITION_FORMATION_WITH_SPECIFIED_SOURCE ( 'ANY', '', #227, .NOT_KNOWN. ) ;
#73 = PERSON_AND_ORGANIZATION ( #207, #169 ) ;
#74 = FACE_OUTER_BOUND ( 'NONE', #194, .T. ) ;
#75 = CALENDAR_DATE ( 2021, 9, 12 ) ;
#76 = CIRCLE ( 'NONE', #245, 1.599999999999991429 ) ;
#77 = DATE_TIME_ROLE ( 'classification_date' ) ;
#78 = ADVANCED_FACE ( 'NONE', ( #107 ), #234, .F. ) ;
#79 = AXIS2_PLACEMENT_3D ( 'NONE', #131, #241, #237 ) ;
#80 = ADVANCED_FACE ( 'NONE', ( #88, #10 ), #50, .T. ) ;
#81 = FACE_OUTER_BOUND ( 'NONE', #155, .T. ) ;
#82 = DIRECTION ( 'NONE',  ( 0.0000000000000000000, 0.0000000000000000000, 1.000000000000000000 ) ) ;
#83 = DIRECTION ( 'NONE',  ( 1.000000000000000000, 0.0000000000000000000, -3.469446951953614189E-15 ) ) ;
#84 = CC_DESIGN_APPROVAL ( #201, ( #37 ) ) ;
#85 = DIRECTION ( 'NONE',  ( -6.530360753733534361E-30, 1.000000000000000000, -1.870369656879593362E-15 ) ) ;
#86 =( LENGTH_UNIT ( ) NAMED_UNIT ( * ) SI_UNIT ( .MILLI., .METRE. ) );
#87 = CARTESIAN_POINT ( 'NONE',  ( 7.681258945454896537E-15, 0.0000000000000000000, 2.200000000000000622 ) ) ;
#88 = FACE_OUTER_BOUND ( 'NONE', #249, .T. ) ;
#89 = CYLINDRICAL_SURFACE ( 'NONE', #21, 1.999999999999991340 ) ;
#90 = AXIS2_PLACEMENT_3D ( 'NONE', #146, #82, #144 ) ;
#91 = CARTESIAN_POINT ( 'NONE',  ( 0.5000000000000004441, 0.0000000000000000000, 0.09999999999999827083 ) ) ;
#92 = EDGE_CURVE ( 'NONE', #176, #176, #126, .T. ) ;
#93 = CARTESIAN_POINT ( 'NONE',  ( -2.839103739574742144E-31, 0.0000000000000000000, -8.131516293641283255E-17 ) ) ;
#94 = LOCAL_TIME ( 13, 42, 14.00000000000000000, #96 ) ;
#95 = DATE_AND_TIME ( #141, #238 ) ;
#96 = COORDINATED_UNIVERSAL_TIME_OFFSET ( 1, 0, .AHEAD. ) ;
#97 = AXIS2_PLACEMENT_3D ( 'NONE', #259, #175, #16 ) ;
#98 = CC_DESIGN_PERSON_AND_ORGANIZATION_ASSIGNMENT ( #73, #239, ( #72 ) ) ;
#99 = COORDINATED_UNIVERSAL_TIME_OFFSET ( 1, 0, .AHEAD. ) ;
#100 = CIRCLE ( 'NONE', #13, 0.5681483474218600449 ) ;
#101 = VERTEX_POINT ( 'NONE', #125 ) ;
#102 = EDGE_LOOP ( 'NONE', ( #123 ) ) ;
#103 = CARTESIAN_POINT ( 'NONE',  ( 0.5000000000000076605, 0.0000000000000000000, 2.199999999999998845 ) ) ;
#104 = EDGE_LOOP ( 'NONE', ( #129 ) ) ;
#105 =( NAMED_UNIT ( * ) SI_UNIT ( $, .STERADIAN. ) SOLID_ANGLE_UNIT ( ) );
#106 = AXIS2_PLACEMENT_3D ( 'NONE', #58, #4, #83 ) ;
#107 = FACE_OUTER_BOUND ( 'NONE', #170, .T. ) ;
#108 = EDGE_CURVE ( 'NONE', #178, #178, #67, .T. ) ;
#109 = CARTESIAN_POINT ( 'NONE',  ( -6.530360753733506335E-30, 1.999999999999991340, -1.870369656879585079E-15 ) ) ;
#110 = APPROVAL ( #181, 'UNSPECIFIED' ) ;
#111 = DIRECTION ( 'NONE',  ( 3.491481338843133355E-15, -1.217805196917478768E-16, 1.000000000000000000 ) ) ;
#112 = DIRECTION ( 'NONE',  ( 3.491481338843133355E-15, -1.217805196917478768E-16, 1.000000000000000000 ) ) ;
#113 = CONICAL_SURFACE ( 'NONE', #251, 1.999999999999991340, 0.7853981633974599363 ) ;
#114 = CARTESIAN_POINT ( 'NONE',  ( 1.326762908760390423E-13, -2.449293598294670423E-16, 38.00000000000000000 ) ) ;
#115 = APPROVAL_ROLE ( '' ) ;
#116 = FACE_OUTER_BOUND ( 'NONE', #217, .T. ) ;
#117 = PERSON_AND_ORGANIZATION ( #207, #169 ) ;
#118 = AXIS2_PLACEMENT_3D ( 'NONE', #29, #46, #85 ) ;
#119 = MANIFOLD_SOLID_BREP ( 'Corps-Déplacer/Copier1[1]', #183 ) ;
#120 = EDGE_LOOP ( 'NONE', ( #230 ) ) ;
#121 = EDGE_LOOP ( 'NONE', ( #43 ) ) ;
#122 = ADVANCED_FACE ( 'NONE', ( #166, #61 ), #143, .T. ) ;
#123 = ORIENTED_EDGE ( 'NONE', *, *, #206, .F. ) ;
#124 = EDGE_CURVE ( 'NONE', #5, #5, #205, .T. ) ;
#125 = CARTESIAN_POINT ( 'NONE',  ( 1.312796983405018394E-13, -1.999999999999991784, 37.60000000000000853 ) ) ;
#126 = CIRCLE ( 'NONE', #60, 0.5000000000000000000 ) ;
#127 = ORIENTED_EDGE ( 'NONE', *, *, #108, .T. ) ;
#128 = ADVANCED_FACE ( 'NONE', ( #222 ), #48, .F. ) ;
#129 = ORIENTED_EDGE ( 'NONE', *, *, #157, .T. ) ;
#130 = CARTESIAN_POINT ( 'NONE',  ( 3.491481338843133848E-16, 0.0000000000000000000, 0.1000000000000000194 ) ) ;
#131 = CARTESIAN_POINT ( 'NONE',  ( 2.814616204789402244E-14, 0.0000000000000000000, 8.061381206528219323 ) ) ;
#132 = DIRECTION ( 'NONE',  ( 3.491481338843133355E-15, -0.0000000000000000000, 1.000000000000000000 ) ) ;
#133 = DIRECTION ( 'NONE',  ( 3.491481338843133355E-15, -1.217805196917478768E-16, 1.000000000000000000 ) ) ;
#134 = AXIS2_PLACEMENT_3D ( 'NONE', #15, #14, #196 ) ;
#135 = APPROVAL_ROLE ( '' ) ;
#136 = ORIENTED_EDGE ( 'NONE', *, *, #124, .T. ) ;
#137 = UNCERTAINTY_MEASURE_WITH_UNIT (LENGTH_MEASURE( 1.000000000000000082E-05 ), #86, 'distance_accuracy_value', 'NONE');
#138 = APPROVAL_PERSON_ORGANIZATION ( #33, #110, #135 ) ;
#139 =( NAMED_UNIT ( * ) PLANE_ANGLE_UNIT ( ) SI_UNIT ( $, .RADIAN. ) );
#140 = ORIENTED_EDGE ( 'NONE', *, *, #124, .F. ) ;
#141 = CALENDAR_DATE ( 2021, 9, 12 ) ;
#142 = APPROVAL_PERSON_ORGANIZATION ( #59, #201, #25 ) ;
#143 = CYLINDRICAL_SURFACE ( 'NONE', #220, 0.5000000000000000000 ) ;
#144 = DIRECTION ( 'NONE',  ( 1.000000000000000000, 0.0000000000000000000, 0.0000000000000000000 ) ) ;
#145 = FACE_BOUND ( 'NONE', #102, .T. ) ;
#146 = CARTESIAN_POINT ( 'NONE',  ( 0.0000000000000000000, 0.0000000000000000000, 0.0000000000000000000 ) ) ;
#147 = EDGE_LOOP ( 'NONE', ( #195 ) ) ;
#148 = CC_DESIGN_PERSON_AND_ORGANIZATION_ASSIGNMENT ( #244, #204, ( #27 ) ) ;
#149 = CONICAL_SURFACE ( 'NONE', #134, 5.399999999999997691, 0.2617993877991425800 ) ;
#150 = CARTESIAN_POINT ( 'NONE',  ( 7.681258945454896537E-15, 4.114813245135106342E-15, 2.200000000000000622 ) ) ;
#151 = DIRECTION ( 'NONE',  ( 3.491481338843133355E-15, -1.217805196917478768E-16, 1.000000000000000000 ) ) ;
#152 = DIRECTION ( 'NONE',  ( 3.491481338843133355E-15, -0.0000000000000000000, 1.000000000000000000 ) ) ;
#153 = AXIS2_PLACEMENT_3D ( 'NONE', #240, #132, #156 ) ;
#154 = PERSON_AND_ORGANIZATION_ROLE ( 'design_supplier' ) ;
#155 = EDGE_LOOP ( 'NONE', ( #127 ) ) ;
#156 = DIRECTION ( 'NONE',  ( 1.000000000000000000, 0.0000000000000000000, -3.491481338843133355E-15 ) ) ;
#157 = EDGE_CURVE ( 'NONE', #101, #101, #49, .T. ) ;
#158 = APPROVAL_DATE_TIME ( #242, #110 ) ;
#159 = CC_DESIGN_DATE_AND_TIME_ASSIGNMENT ( #95, #38, ( #37 ) ) ;
#160 = PERSON_AND_ORGANIZATION ( #207, #169 ) ;
#161 = TOROIDAL_SURFACE ( 'NONE', #153, 2.500000000000000000, 2.000000000000000000 ) ;
#162 = SHAPE_DEFINITION_REPRESENTATION ( #2, #243 ) ;
#163 = LOCAL_TIME ( 13, 42, 14.00000000000000000, #99 ) ;
#164 = APPLICATION_PROTOCOL_DEFINITION ( 'international standard', 'config_control_design', 1994, #68 ) ;
#165 = DIRECTION ( 'NONE',  ( 1.000000000000000000, 0.0000000000000000000, -3.469446951953614189E-15 ) ) ;
#166 = FACE_OUTER_BOUND ( 'NONE', #41, .T. ) ;
#167 = CARTESIAN_POINT ( 'NONE',  ( 2.000000000000019540, 0.0000000000000000000, 8.061381206528212218 ) ) ;
#168 = ADVANCED_FACE ( 'NONE', ( #74 ), #47, .F. ) ;
#169 = ORGANIZATION ( 'UNSPECIFIED', 'UNSPECIFIED', '' ) ;
#170 = EDGE_LOOP ( 'NONE', ( #140 ) ) ;
#171 = APPROVAL_DATE_TIME ( #9, #201 ) ;
#172 = DIRECTION ( 'NONE',  ( 3.491481338843133355E-15, -0.0000000000000000000, 1.000000000000000000 ) ) ;
#173 = EDGE_LOOP ( 'NONE', ( #7 ) ) ;
#174 = CIRCLE ( 'NONE', #224, 0.5000000000000001110 ) ;
#175 = DIRECTION ( 'NONE',  ( -3.491481338843133355E-15, 1.217805196917478768E-16, -1.000000000000000000 ) ) ;
#176 = VERTEX_POINT ( 'NONE', #198 ) ;
#177 = ADVANCED_FACE ( 'NONE', ( #34, #116 ), #161, .F. ) ;
#178 = VERTEX_POINT ( 'NONE', #103 ) ;
#179 = CARTESIAN_POINT ( 'NONE',  ( 1.312796983405018394E-13, -1.962171519527689713E-16, 37.60000000000000853 ) ) ;
#180 = AXIS2_PLACEMENT_3D ( 'NONE', #150, #133, #200 ) ;
#181 = APPROVAL_STATUS ( 'not_yet_approved' ) ;
#182 = SECURITY_CLASSIFICATION_LEVEL ( 'unclassified' ) ;
#183 = CLOSED_SHELL ( 'NONE', ( #255, #55, #168, #252, #177, #128 ) ) ;
#184 = COORDINATED_UNIVERSAL_TIME_OFFSET ( 1, 0, .AHEAD. ) ;
#185 = AXIS2_PLACEMENT_3D ( 'NONE', #130, #172, #218 ) ;
#186 = EDGE_CURVE ( 'NONE', #64, #64, #54, .T. ) ;
#187 = EDGE_LOOP ( 'NONE', ( #254 ) ) ;
#188 = CALENDAR_DATE ( 2021, 9, 12 ) ;
#189 = EDGE_LOOP ( 'NONE', ( #214 ) ) ;
#190 = PERSON_AND_ORGANIZATION ( #207, #169 ) ;
#191 = CARTESIAN_POINT ( 'NONE',  ( 0.0000000000000000000, 0.0000000000000000000, 0.0000000000000000000 ) ) ;
#192 = COORDINATED_UNIVERSAL_TIME_OFFSET ( 1, 0, .AHEAD. ) ;
#193 = AXIS2_PLACEMENT_3D ( 'NONE', #93, #31, #236 ) ;
#194 = EDGE_LOOP ( 'NONE', ( #256 ) ) ;
#195 = ORIENTED_EDGE ( 'NONE', *, *, #92, .T. ) ;
#196 = DIRECTION ( 'NONE',  ( 1.000000000000000000, 0.0000000000000000000, -3.212450881438533030E-15 ) ) ;
#197 = DIRECTION ( 'NONE',  ( 1.000000000000000000, 0.0000000000000000000, -3.816616478444019910E-15 ) ) ;
#198 = CARTESIAN_POINT ( 'NONE',  ( 0.5000000000000076605, 0.0000000000000000000, 2.199999999999998845 ) ) ;
#199 = APPROVAL_DATE_TIME ( #263, #57 ) ;
#200 = DIRECTION ( 'NONE',  ( -4.251944119383564073E-31, -1.000000000000000000, -1.217805196917478768E-16 ) ) ;
#201 = APPROVAL ( #231, 'UNSPECIFIED' ) ;
#202 = DATE_AND_TIME ( #19, #94 ) ;
#203 = CC_DESIGN_APPROVAL ( #110, ( #72 ) ) ;
#204 = PERSON_AND_ORGANIZATION_ROLE ( 'classification_officer' ) ;
#205 = CIRCLE ( 'NONE', #193, 0.4000000000000000222 ) ;
#206 = EDGE_CURVE ( 'NONE', #44, #44, #76, .T. ) ;
#207 = PERSON ( 'UNSPECIFIED', 'UNSPECIFIED', 'UNSPECIFIED', ('UNSPECIFIED'), ('UNSPECIFIED'), ('UNSPECIFIED') ) ;
#208 = CC_DESIGN_PERSON_AND_ORGANIZATION_ASSIGNMENT ( #28, #248, ( #37 ) ) ;
#209 = CARTESIAN_POINT ( 'NONE',  ( 0.4000000000000000222, 0.0000000000000000000, -1.477907698473666175E-15 ) ) ;
#210 =( GEOMETRIC_REPRESENTATION_CONTEXT ( 3 ) GLOBAL_UNCERTAINTY_ASSIGNED_CONTEXT ( ( #137 ) ) GLOBAL_UNIT_ASSIGNED_CONTEXT ( ( #86, #139, #105 ) ) REPRESENTATION_CONTEXT ( 'NONE', 'WORKASPACE' ) );
#211 = FACE_OUTER_BOUND ( 'NONE', #104, .T. ) ;
#212 = CARTESIAN_POINT ( 'NONE',  ( 0.5681483474218695928, 0.0000000000000000000, 2.717638090205027002 ) ) ;
#213 = MANIFOLD_SOLID_BREP ( 'Corps-Déplacer/Copier1[2]', #40 ) ;
#214 = ORIENTED_EDGE ( 'NONE', *, *, #18, .F. ) ;
#215 = PLANE ( 'NONE',  #118 ) ;
#216 = LOCAL_TIME ( 13, 42, 14.00000000000000000, #192 ) ;
#217 = EDGE_LOOP ( 'NONE', ( #42 ) ) ;
#218 = DIRECTION ( 'NONE',  ( 1.000000000000000000, 0.0000000000000000000, -3.491481338843133355E-15 ) ) ;
#219 = FACE_OUTER_BOUND ( 'NONE', #250, .T. ) ;
#220 = AXIS2_PLACEMENT_3D ( 'NONE', #191, #152, #69 ) ;
#221 = FACE_OUTER_BOUND ( 'NONE', #45, .T. ) ;
#222 = FACE_OUTER_BOUND ( 'NONE', #187, .T. ) ;
#223 = EDGE_CURVE ( 'NONE', #229, #229, #100, .T. ) ;
#224 = AXIS2_PLACEMENT_3D ( 'NONE', #11, #235, #63 ) ;
#225 = DESIGN_CONTEXT ( 'detailed design', #68, 'design' ) ;
#226 = PRODUCT_RELATED_PRODUCT_CATEGORY ( 'detail', '', ( #227 ) ) ;
#227 = PRODUCT ( '392810', '392810', '', ( #23 ) ) ;
#228 = DIRECTION ( 'NONE',  ( 3.491481338843133355E-15, 1.870369656879593362E-15, 1.000000000000000000 ) ) ;
#229 = VERTEX_POINT ( 'NONE', #212 ) ;
#230 = ORIENTED_EDGE ( 'NONE', *, *, #108, .F. ) ;
#231 = APPROVAL_STATUS ( 'not_yet_approved' ) ;
#232 = ORIENTED_EDGE ( 'NONE', *, *, #18, .T. ) ;
#233 = APPLICATION_PROTOCOL_DEFINITION ( 'international standard', 'config_control_design', 1994, #36 ) ;
#234 = PLANE ( 'NONE',  #1 ) ;
#235 = DIRECTION ( 'NONE',  ( 3.491481338843133355E-15, -0.0000000000000000000, 1.000000000000000000 ) ) ;
#236 = DIRECTION ( 'NONE',  ( 1.000000000000000000, 0.0000000000000000000, -3.491481338843133355E-15 ) ) ;
#237 = DIRECTION ( 'NONE',  ( 1.000000000000000000, 0.0000000000000000000, -3.469446951953629177E-15 ) ) ;
#238 = LOCAL_TIME ( 13, 42, 14.00000000000000000, #56 ) ;
#239 = PERSON_AND_ORGANIZATION_ROLE ( 'creator' ) ;
#240 = CARTESIAN_POINT ( 'NONE',  ( 7.681258945454894959E-15, 0.0000000000000000000, 2.200000000000000178 ) ) ;
#241 = DIRECTION ( 'NONE',  ( -3.491481338843133355E-15, 0.0000000000000000000, -1.000000000000000000 ) ) ;
#242 = DATE_AND_TIME ( #262, #163 ) ;
#243 = ADVANCED_BREP_SHAPE_REPRESENTATION ( '392810', ( #119, #213, #90 ), #210 ) ;
#244 = PERSON_AND_ORGANIZATION ( #207, #169 ) ;
#245 = AXIS2_PLACEMENT_3D ( 'NONE', #258, #111, #71 ) ;
#246 = APPROVAL_STATUS ( 'not_yet_approved' ) ;
#247 = APPROVAL_PERSON_ORGANIZATION ( #117, #57, #115 ) ;
#248 = PERSON_AND_ORGANIZATION_ROLE ( 'creator' ) ;
#249 = EDGE_LOOP ( 'NONE', ( #136 ) ) ;
#250 = EDGE_LOOP ( 'NONE', ( #66 ) ) ;
#251 = AXIS2_PLACEMENT_3D ( 'NONE', #24, #65, #26 ) ;
#252 = ADVANCED_FACE ( 'NONE', ( #70, #221 ), #149, .T. ) ;
#253 = ORIENTED_EDGE ( 'NONE', *, *, #186, .T. ) ;
#254 = ORIENTED_EDGE ( 'NONE', *, *, #92, .F. ) ;
#255 = ADVANCED_FACE ( 'NONE', ( #32, #219 ), #89, .T. ) ;
#256 = ORIENTED_EDGE ( 'NONE', *, *, #206, .T. ) ;
#257 = CC_DESIGN_APPROVAL ( #57, ( #27 ) ) ;
#258 = CARTESIAN_POINT ( 'NONE',  ( 1.326762908760390423E-13, -2.449293598294670423E-16, 38.00000000000000000 ) ) ;
#259 = CARTESIAN_POINT ( 'NONE',  ( 1.326762908760390423E-13, -2.449293598294670423E-16, 38.00000000000000000 ) ) ;
#260 = VERTEX_POINT ( 'NONE', #91 ) ;
#261 = CARTESIAN_POINT ( 'NONE',  ( 9.488582677680151340E-15, 0.0000000000000000000, 2.717638090205029222 ) ) ;
#262 = CALENDAR_DATE ( 2021, 9, 12 ) ;
#263 = DATE_AND_TIME ( #75, #17 ) ;
ENDSEC;
END-ISO-10303-21;
