ISO-10303-21;
HEADER;
FILE_DESCRIPTION (( 'STEP AP203' ),
    '1' );
FILE_NAME ('392809.step',
    '2021-12-09T12:42:14',
    ( '' ),
    ( '' ),
    'SwSTEP 2.0',
    'SolidWorks 2019',
    '' );
FILE_SCHEMA (( 'CONFIG_CONTROL_DESIGN' ));
ENDSEC;

DATA;
#1 = DIRECTION ( 'NONE',  ( -3.491481338843133355E-15, 1.224646799147352221E-16, -1.000000000000000000 ) ) ;
#2 = CARTESIAN_POINT ( 'NONE',  ( 6.982962677686268288E-15, 0.0000000000000000000, 2.000000000000000444 ) ) ;
#3 = ADVANCED_BREP_SHAPE_REPRESENTATION ( '392809', ( #62, #61, #70 ), #145 ) ;
#4 = FACE_OUTER_BOUND ( 'NONE', #179, .T. ) ;
#5 = VERTEX_POINT ( 'NONE', #68 ) ;
#6 = APPROVAL_PERSON_ORGANIZATION ( #47, #166, #28 ) ;
#7 = AXIS2_PLACEMENT_3D ( 'NONE', #33, #254, #156 ) ;
#8 = PRODUCT ( '392809', '392809', '', ( #13 ) ) ;
#9 = EDGE_LOOP ( 'NONE', ( #12 ) ) ;
#10 = CC_DESIGN_DATE_AND_TIME_ASSIGNMENT ( #237, #201, ( #263 ) ) ;
#11 = DIRECTION ( 'NONE',  ( 3.491481338843133355E-15, -0.0000000000000000000, 1.000000000000000000 ) ) ;
#12 = ORIENTED_EDGE ( 'NONE', *, *, #148, .T. ) ;
#13 = MECHANICAL_CONTEXT ( 'NONE', #124, 'mechanical' ) ;
#14 = CARTESIAN_POINT ( 'NONE',  ( 0.3499999999999999778, 0.0000000000000000000, -1.303333631531509507E-15 ) ) ;
#15 = CARTESIAN_POINT ( 'NONE',  ( 0.0000000000000000000, 0.0000000000000000000, 0.0000000000000000000 ) ) ;
#16 = PERSON_AND_ORGANIZATION_ROLE ( 'creator' ) ;
#17 = LOCAL_TIME ( 13, 42, 14.00000000000000000, #38 ) ;
#18 = ORIENTED_EDGE ( 'NONE', *, *, #122, .T. ) ;
#19 = CARTESIAN_POINT ( 'NONE',  ( 1.326762908760390423E-13, -1.599999999999991651, 38.00000000000000000 ) ) ;
#20 = ORIENTED_EDGE ( 'NONE', *, *, #176, .T. ) ;
#21 = EDGE_LOOP ( 'NONE', ( #235 ) ) ;
#22 = AXIS2_PLACEMENT_3D ( 'NONE', #174, #195, #151 ) ;
#23 = AXIS2_PLACEMENT_3D ( 'NONE', #88, #126, #260 ) ;
#24 = DIRECTION ( 'NONE',  ( 7.268913458024823851E-30, -1.000000000000000000, 2.081899558550498702E-15 ) ) ;
#25 = FACE_OUTER_BOUND ( 'NONE', #104, .T. ) ;
#26 = CARTESIAN_POINT ( 'NONE',  ( 8.790286409911524669E-15, 0.0000000000000000000, 2.517638090205029044 ) ) ;
#27 = EDGE_LOOP ( 'NONE', ( #255 ) ) ;
#28 = APPROVAL_ROLE ( '' ) ;
#29 = PRODUCT_DEFINITION_SHAPE ( 'NONE', 'NONE',  #263 ) ;
#30 = ORIENTED_EDGE ( 'NONE', *, *, #87, .T. ) ;
#31 = COORDINATED_UNIVERSAL_TIME_OFFSET ( 1, 0, .AHEAD. ) ;
#32 = CC_DESIGN_APPROVAL ( #204, ( #263 ) ) ;
#33 = CARTESIAN_POINT ( 'NONE',  ( 1.326762908760390423E-13, -2.449293598294670423E-16, 38.00000000000000000 ) ) ;
#34 = COORDINATED_UNIVERSAL_TIME_OFFSET ( 1, 0, .AHEAD. ) ;
#35 = ADVANCED_FACE ( 'NONE', ( #89 ), #209, .F. ) ;
#36 = LOCAL_TIME ( 13, 42, 14.00000000000000000, #34 ) ;
#37 = ORIENTED_EDGE ( 'NONE', *, *, #87, .F. ) ;
#38 = COORDINATED_UNIVERSAL_TIME_OFFSET ( 1, 0, .AHEAD. ) ;
#39 = CC_DESIGN_APPROVAL ( #166, ( #77 ) ) ;
#40 = CC_DESIGN_PERSON_AND_ORGANIZATION_ASSIGNMENT ( #69, #175, ( #77 ) ) ;
#41 = FACE_OUTER_BOUND ( 'NONE', #21, .T. ) ;
#42 = AXIS2_PLACEMENT_3D ( 'NONE', #250, #127, #67 ) ;
#43 = DIRECTION ( 'NONE',  ( -4.275831445896955103E-31, -1.000000000000000000, -1.224646799147352221E-16 ) ) ;
#44 = FACE_OUTER_BOUND ( 'NONE', #91, .T. ) ;
#45 = FACE_OUTER_BOUND ( 'NONE', #206, .T. ) ;
#46 = AXIS2_PLACEMENT_3D ( 'NONE', #90, #230, #132 ) ;
#47 = PERSON_AND_ORGANIZATION ( #242, #100 ) ;
#48 = FACE_OUTER_BOUND ( 'NONE', #27, .T. ) ;
#49 = ORIENTED_EDGE ( 'NONE', *, *, #148, .F. ) ;
#50 = VERTEX_POINT ( 'NONE', #95 ) ;
#51 = APPLICATION_PROTOCOL_DEFINITION ( 'international standard', 'config_control_design', 1994, #149 ) ;
#52 = FACE_OUTER_BOUND ( 'NONE', #9, .T. ) ;
#53 = SECURITY_CLASSIFICATION_LEVEL ( 'unclassified' ) ;
#54 = AXIS2_PLACEMENT_3D ( 'NONE', #2, #210, #147 ) ;
#55 = DIRECTION ( 'NONE',  ( 1.000000000000000000, 0.0000000000000000000, 0.0000000000000000000 ) ) ;
#56 = DESIGN_CONTEXT ( 'detailed design', #149, 'design' ) ;
#57 = ADVANCED_FACE ( 'NONE', ( #64, #41 ), #164, .F. ) ;
#58 = ORIENTED_EDGE ( 'NONE', *, *, #153, .F. ) ;
#59 = CARTESIAN_POINT ( 'NONE',  ( 2.809938506763748478E-14, 0.0000000000000000000, 8.047983746906671954 ) ) ;
#60 = AXIS2_PLACEMENT_3D ( 'NONE', #73, #11, #181 ) ;
#61 = MANIFOLD_SOLID_BREP ( 'Corps-Déplacer/Copier1[2]', #130 ) ;
#62 = MANIFOLD_SOLID_BREP ( 'Corps-Déplacer/Copier1[1]', #94 ) ;
#63 = CC_DESIGN_SECURITY_CLASSIFICATION ( #77, ( #247 ) ) ;
#64 = FACE_OUTER_BOUND ( 'NONE', #135, .T. ) ;
#65 = CIRCLE ( 'NONE', #60, 0.4500000000000001221 ) ;
#66 = CC_DESIGN_PERSON_AND_ORGANIZATION_ASSIGNMENT ( #97, #180, ( #247 ) ) ;
#67 = DIRECTION ( 'NONE',  ( 1.000000000000000000, 0.0000000000000000000, -3.491481338843133750E-15 ) ) ;
#68 = CARTESIAN_POINT ( 'NONE',  ( 2.000000000000019540, 0.0000000000000000000, 8.047983746906664848 ) ) ;
#69 = PERSON_AND_ORGANIZATION ( #242, #100 ) ;
#70 = AXIS2_PLACEMENT_3D ( 'NONE', #15, #253, #55 ) ;
#71 = VERTEX_POINT ( 'NONE', #252 ) ;
#72 = VERTEX_POINT ( 'NONE', #155 ) ;
#73 = CARTESIAN_POINT ( 'NONE',  ( 3.491481338843133848E-16, 0.0000000000000000000, 0.1000000000000000194 ) ) ;
#74 = CARTESIAN_POINT ( 'NONE',  ( 0.4500000000000003997, 0.0000000000000000000, 0.09999999999999845124 ) ) ;
#75 = FACE_BOUND ( 'NONE', #217, .T. ) ;
#76 = CALENDAR_DATE ( 2021, 9, 12 ) ;
#77 = SECURITY_CLASSIFICATION ( '', '', #53 ) ;
#78 = ADVANCED_FACE ( 'NONE', ( #75, #52 ), #138, .T. ) ;
#79 = APPROVAL_DATE_TIME ( #141, #166 ) ;
#80 = ADVANCED_FACE ( 'NONE', ( #4, #44 ), #248, .T. ) ;
#81 = CONICAL_SURFACE ( 'NONE', #249, 5.349999999999997868, 0.2617993877991427465 ) ;
#82 = SHAPE_DEFINITION_REPRESENTATION ( #29, #3 ) ;
#83 = FACE_OUTER_BOUND ( 'NONE', #110, .T. ) ;
#84 = CC_DESIGN_PERSON_AND_ORGANIZATION_ASSIGNMENT ( #96, #136, ( #8 ) ) ;
#85 = DIRECTION ( 'NONE',  ( 1.000000000000000000, 0.0000000000000000000, -3.491481338843133355E-15 ) ) ;
#86 = DIRECTION ( 'NONE',  ( 3.491481338843133355E-15, -1.224646799147352221E-16, 1.000000000000000000 ) ) ;
#87 = EDGE_CURVE ( 'NONE', #92, #92, #125, .T. ) ;
#88 = CARTESIAN_POINT ( 'NONE',  ( 6.982962677686268288E-15, 0.0000000000000000000, 2.000000000000000444 ) ) ;
#89 = FACE_OUTER_BOUND ( 'NONE', #170, .T. ) ;
#90 = CARTESIAN_POINT ( 'NONE',  ( 6.982962677686266711E-15, 0.0000000000000000000, 2.000000000000000000 ) ) ;
#91 = EDGE_LOOP ( 'NONE', ( #157 ) ) ;
#92 = VERTEX_POINT ( 'NONE', #14 ) ;
#93 = CALENDAR_DATE ( 2021, 9, 12 ) ;
#94 = CLOSED_SHELL ( 'NONE', ( #184, #78, #171, #224, #57, #219 ) ) ;
#95 = CARTESIAN_POINT ( 'NONE',  ( 0.4500000000000068945, 0.0000000000000000000, 1.999999999999998668 ) ) ;
#96 = PERSON_AND_ORGANIZATION ( #242, #100 ) ;
#97 = PERSON_AND_ORGANIZATION ( #242, #100 ) ;
#98 = CC_DESIGN_APPROVAL ( #185, ( #247 ) ) ;
#99 = EDGE_LOOP ( 'NONE', ( #202 ) ) ;
#100 = ORGANIZATION ( 'UNSPECIFIED', 'UNSPECIFIED', '' ) ;
#101 = CALENDAR_DATE ( 2021, 9, 12 ) ;
#102 = DIRECTION ( 'NONE',  ( 1.000000000000000000, 0.0000000000000000000, -3.469446951953629177E-15 ) ) ;
#103 = CIRCLE ( 'NONE', #194, 0.5181483474218598895 ) ;
#104 = EDGE_LOOP ( 'NONE', ( #186 ) ) ;
#105 = PLANE ( 'NONE',  #259 ) ;
#106 = DIRECTION ( 'NONE',  ( 3.491481338843133355E-15, -0.0000000000000000000, 1.000000000000000000 ) ) ;
#107 = DIRECTION ( 'NONE',  ( -3.491481338843133355E-15, -2.081899558550498702E-15, -1.000000000000000000 ) ) ;
#108 = CC_DESIGN_PERSON_AND_ORGANIZATION_ASSIGNMENT ( #158, #16, ( #263 ) ) ;
#109 = DIRECTION ( 'NONE',  ( -3.491481338843133355E-15, 0.0000000000000000000, -1.000000000000000000 ) ) ;
#110 = EDGE_LOOP ( 'NONE', ( #20 ) ) ;
#111 = LOCAL_TIME ( 13, 42, 14.00000000000000000, #31 ) ;
#112 = DIRECTION ( 'NONE',  ( 3.491481338843133355E-15, -0.0000000000000000000, 1.000000000000000000 ) ) ;
#113 = EDGE_LOOP ( 'NONE', ( #49 ) ) ;
#114 = EDGE_LOOP ( 'NONE', ( #58 ) ) ;
#115 = CARTESIAN_POINT ( 'NONE',  ( 0.0000000000000000000, 0.0000000000000000000, 0.0000000000000000000 ) ) ;
#116 = ORIENTED_EDGE ( 'NONE', *, *, #200, .T. ) ;
#117 = APPROVAL_STATUS ( 'not_yet_approved' ) ;
#118 = CIRCLE ( 'NONE', #23, 0.4499999999999999001 ) ;
#119 = DATE_AND_TIME ( #251, #36 ) ;
#120 = PRODUCT_RELATED_PRODUCT_CATEGORY ( 'detail', '', ( #8 ) ) ;
#121 = PERSON_AND_ORGANIZATION ( #242, #100 ) ;
#122 = EDGE_CURVE ( 'NONE', #50, #50, #208, .T. ) ;
#123 = DIRECTION ( 'NONE',  ( 3.491481338843133355E-15, -1.224646799147352221E-16, 1.000000000000000000 ) ) ;
#124 = APPLICATION_CONTEXT ( 'configuration controlled 3d designs of mechanical parts and assemblies' ) ;
#125 = CIRCLE ( 'NONE', #42, 0.3499999999999999778 ) ;
#126 = DIRECTION ( 'NONE',  ( 3.491481338843133355E-15, -0.0000000000000000000, 1.000000000000000000 ) ) ;
#127 = DIRECTION ( 'NONE',  ( 3.491481338843133355E-15, -0.0000000000000000000, 1.000000000000000000 ) ) ;
#128 = DIRECTION ( 'NONE',  ( 0.0000000000000000000, -1.000000000000000000, 0.0000000000000000000 ) ) ;
#129 = ORIENTED_EDGE ( 'NONE', *, *, #241, .F. ) ;
#130 = CLOSED_SHELL ( 'NONE', ( #35, #80, #226, #131 ) ) ;
#131 = ADVANCED_FACE ( 'NONE', ( #25 ), #105, .F. ) ;
#132 = DIRECTION ( 'NONE',  ( 1.000000000000000000, 0.0000000000000000000, -3.491481338843133355E-15 ) ) ;
#133 = APPROVAL_STATUS ( 'not_yet_approved' ) ;
#134 = FACE_OUTER_BOUND ( 'NONE', #114, .T. ) ;
#135 = EDGE_LOOP ( 'NONE', ( #18 ) ) ;
#136 = PERSON_AND_ORGANIZATION_ROLE ( 'design_owner' ) ;
#137 = APPROVAL_DATE_TIME ( #233, #204 ) ;
#138 = CONICAL_SURFACE ( 'NONE', #22, 1.999999999999991340, 0.7853981633974599363 ) ;
#139 = CIRCLE ( 'NONE', #228, 1.999999999999991784 ) ;
#140 = VERTEX_POINT ( 'NONE', #19 ) ;
#141 = DATE_AND_TIME ( #101, #17 ) ;
#142 = CYLINDRICAL_SURFACE ( 'NONE', #236, 1.999999999999991340 ) ;
#143 = DIRECTION ( 'NONE',  ( -7.268913458024823851E-30, 1.000000000000000000, -2.081899558550498702E-15 ) ) ;
#144 = DIRECTION ( 'NONE',  ( 1.000000000000000000, 0.0000000000000000000, -3.242473786872537786E-15 ) ) ;
#145 =( GEOMETRIC_REPRESENTATION_CONTEXT ( 3 ) GLOBAL_UNCERTAINTY_ASSIGNED_CONTEXT ( ( #163 ) ) GLOBAL_UNIT_ASSIGNED_CONTEXT ( ( #258, #218, #177 ) ) REPRESENTATION_CONTEXT ( 'NONE', 'WORKASPACE' ) );
#146 = AXIS2_PLACEMENT_3D ( 'NONE', #59, #109, #102 ) ;
#147 = DIRECTION ( 'NONE',  ( 1.000000000000000000, 0.0000000000000000000, -3.854941057726238689E-15 ) ) ;
#148 = EDGE_CURVE ( 'NONE', #71, #71, #139, .T. ) ;
#149 = APPLICATION_CONTEXT ( 'configuration controlled 3d designs of mechanical parts and assemblies' ) ;
#150 = APPLICATION_PROTOCOL_DEFINITION ( 'international standard', 'config_control_design', 1994, #124 ) ;
#151 = DIRECTION ( 'NONE',  ( 0.0000000000000000000, 1.000000000000000000, 0.0000000000000000000 ) ) ;
#152 = VERTEX_POINT ( 'NONE', #193 ) ;
#153 = EDGE_CURVE ( 'NONE', #152, #152, #118, .T. ) ;
#154 = CALENDAR_DATE ( 2021, 9, 12 ) ;
#155 = CARTESIAN_POINT ( 'NONE',  ( 0.5181483474218686602, 0.0000000000000000000, 2.517638090205027268 ) ) ;
#156 = DIRECTION ( 'NONE',  ( 0.0000000000000000000, -1.000000000000000000, 0.0000000000000000000 ) ) ;
#157 = ORIENTED_EDGE ( 'NONE', *, *, #246, .F. ) ;
#158 = PERSON_AND_ORGANIZATION ( #242, #100 ) ;
#159 = APPROVAL_ROLE ( '' ) ;
#160 = ORIENTED_EDGE ( 'NONE', *, *, #241, .T. ) ;
#161 = PERSON_AND_ORGANIZATION ( #242, #100 ) ;
#162 = AXIS2_PLACEMENT_3D ( 'NONE', #115, #178, #232 ) ;
#163 = UNCERTAINTY_MEASURE_WITH_UNIT (LENGTH_MEASURE( 1.000000000000000082E-05 ), #258, 'distance_accuracy_value', 'NONE');
#164 = TOROIDAL_SURFACE ( 'NONE', #46, 2.449999999999999734, 2.000000000000000000 ) ;
#165 = CARTESIAN_POINT ( 'NONE',  ( 1.326762908760390423E-13, -2.449293598294670423E-16, 38.00000000000000000 ) ) ;
#166 = APPROVAL ( #133, 'UNSPECIFIED' ) ;
#167 = DIRECTION ( 'NONE',  ( 3.491481338843133355E-15, -0.0000000000000000000, 1.000000000000000000 ) ) ;
#168 = CARTESIAN_POINT ( 'NONE',  ( 6.982962677686277755E-15, 4.163799117101002926E-15, 2.000000000000003109 ) ) ;
#169 = FACE_OUTER_BOUND ( 'NONE', #205, .T. ) ;
#170 = EDGE_LOOP ( 'NONE', ( #37 ) ) ;
#171 = ADVANCED_FACE ( 'NONE', ( #45 ), #191, .F. ) ;
#172 = AXIS2_PLACEMENT_3D ( 'NONE', #229, #112, #85 ) ;
#173 = CIRCLE ( 'NONE', #146, 1.999999999999991340 ) ;
#174 = CARTESIAN_POINT ( 'NONE',  ( 1.312796983405018394E-13, -1.959434878635740332E-16, 37.60000000000000853 ) ) ;
#175 = PERSON_AND_ORGANIZATION_ROLE ( 'classification_officer' ) ;
#176 = EDGE_CURVE ( 'NONE', #5, #5, #173, .T. ) ;
#177 =( NAMED_UNIT ( * ) SI_UNIT ( $, .STERADIAN. ) SOLID_ANGLE_UNIT ( ) );
#178 = DIRECTION ( 'NONE',  ( 3.491481338843133355E-15, -0.0000000000000000000, 1.000000000000000000 ) ) ;
#179 = EDGE_LOOP ( 'NONE', ( #30 ) ) ;
#180 = PERSON_AND_ORGANIZATION_ROLE ( 'creator' ) ;
#181 = DIRECTION ( 'NONE',  ( 1.000000000000000000, 0.0000000000000000000, -3.493540333564402037E-15 ) ) ;
#182 = COORDINATED_UNIVERSAL_TIME_OFFSET ( 1, 0, .AHEAD. ) ;
#183 = PERSON_AND_ORGANIZATION_ROLE ( 'design_supplier' ) ;
#184 = ADVANCED_FACE ( 'NONE', ( #212, #223 ), #142, .T. ) ;
#185 = APPROVAL ( #203, 'UNSPECIFIED' ) ;
#186 = ORIENTED_EDGE ( 'NONE', *, *, #153, .T. ) ;
#187 = APPROVAL_PERSON_ORGANIZATION ( #121, #185, #221 ) ;
#188 = DIRECTION ( 'NONE',  ( 0.0000000000000000000, -1.000000000000000000, 0.0000000000000000000 ) ) ;
#189 = CIRCLE ( 'NONE', #7, 1.599999999999991429 ) ;
#190 = PLANE ( 'NONE',  #198 ) ;
#191 = PLANE ( 'NONE',  #220 ) ;
#192 = CARTESIAN_POINT ( 'NONE',  ( 1.326762908760390423E-13, -2.449293598294670423E-16, 38.00000000000000000 ) ) ;
#193 = CARTESIAN_POINT ( 'NONE',  ( 0.4500000000000068945, 0.0000000000000000000, 1.999999999999998668 ) ) ;
#194 = AXIS2_PLACEMENT_3D ( 'NONE', #26, #167, #261 ) ;
#195 = DIRECTION ( 'NONE',  ( -3.491481338843133355E-15, 1.224646799147352221E-16, -1.000000000000000000 ) ) ;
#196 = DATE_AND_TIME ( #76, #244 ) ;
#197 = CYLINDRICAL_SURFACE ( 'NONE', #162, 0.4500000000000000111 ) ;
#198 = AXIS2_PLACEMENT_3D ( 'NONE', #240, #123, #43 ) ;
#199 = COORDINATED_UNIVERSAL_TIME_OFFSET ( 1, 0, .AHEAD. ) ;
#200 = EDGE_CURVE ( 'NONE', #72, #72, #103, .T. ) ;
#201 = DATE_TIME_ROLE ( 'creation_date' ) ;
#202 = ORIENTED_EDGE ( 'NONE', *, *, #176, .F. ) ;
#203 = APPROVAL_STATUS ( 'not_yet_approved' ) ;
#204 = APPROVAL ( #117, 'UNSPECIFIED' ) ;
#205 = EDGE_LOOP ( 'NONE', ( #215 ) ) ;
#206 = EDGE_LOOP ( 'NONE', ( #160 ) ) ;
#207 = FACE_BOUND ( 'NONE', #238, .T. ) ;
#208 = CIRCLE ( 'NONE', #54, 0.4499999999999999001 ) ;
#209 = PLANE ( 'NONE',  #239 ) ;
#210 = DIRECTION ( 'NONE',  ( 3.491481338843133355E-15, -0.0000000000000000000, 1.000000000000000000 ) ) ;
#211 = CARTESIAN_POINT ( 'NONE',  ( 7.175117733094669441E-14, 0.0000000000000000000, 20.55035395226276762 ) ) ;
#212 = FACE_OUTER_BOUND ( 'NONE', #113, .T. ) ;
#213 = DIRECTION ( 'NONE',  ( 3.491481338843133355E-15, 2.081899558550498702E-15, 1.000000000000000000 ) ) ;
#214 = CC_DESIGN_PERSON_AND_ORGANIZATION_ASSIGNMENT ( #256, #183, ( #247 ) ) ;
#215 = ORIENTED_EDGE ( 'NONE', *, *, #122, .F. ) ;
#216 = APPROVAL_PERSON_ORGANIZATION ( #161, #204, #159 ) ;
#217 = EDGE_LOOP ( 'NONE', ( #129 ) ) ;
#218 =( NAMED_UNIT ( * ) PLANE_ANGLE_UNIT ( ) SI_UNIT ( $, .RADIAN. ) );
#219 = ADVANCED_FACE ( 'NONE', ( #169 ), #190, .F. ) ;
#220 = AXIS2_PLACEMENT_3D ( 'NONE', #165, #1, #262 ) ;
#221 = APPROVAL_ROLE ( '' ) ;
#222 = VERTEX_POINT ( 'NONE', #74 ) ;
#223 = FACE_OUTER_BOUND ( 'NONE', #99, .T. ) ;
#224 = ADVANCED_FACE ( 'NONE', ( #207, #83 ), #81, .T. ) ;
#225 = CARTESIAN_POINT ( 'NONE',  ( 1.312796983405018394E-13, -1.959434878635740332E-16, 37.60000000000000853 ) ) ;
#226 = ADVANCED_FACE ( 'NONE', ( #48, #134 ), #197, .T. ) ;
#227 = LOCAL_TIME ( 13, 42, 14.00000000000000000, #199 ) ;
#228 = AXIS2_PLACEMENT_3D ( 'NONE', #225, #245, #128 ) ;
#229 = CARTESIAN_POINT ( 'NONE',  ( 3.491481338843133848E-16, 0.0000000000000000000, 0.1000000000000000194 ) ) ;
#230 = DIRECTION ( 'NONE',  ( 3.491481338843133355E-15, -0.0000000000000000000, 1.000000000000000000 ) ) ;
#231 = DATE_TIME_ROLE ( 'classification_date' ) ;
#232 = DIRECTION ( 'NONE',  ( 1.000000000000000000, 0.0000000000000000000, -3.491481338843133355E-15 ) ) ;
#233 = DATE_AND_TIME ( #154, #227 ) ;
#234 = APPROVAL_DATE_TIME ( #196, #185 ) ;
#235 = ORIENTED_EDGE ( 'NONE', *, *, #200, .F. ) ;
#236 = AXIS2_PLACEMENT_3D ( 'NONE', #192, #86, #188 ) ;
#237 = DATE_AND_TIME ( #93, #111 ) ;
#238 = EDGE_LOOP ( 'NONE', ( #116 ) ) ;
#239 = AXIS2_PLACEMENT_3D ( 'NONE', #243, #213, #24 ) ;
#240 = CARTESIAN_POINT ( 'NONE',  ( 6.982962677686269866E-15, 4.163799117101000559E-15, 2.000000000000000888 ) ) ;
#241 = EDGE_CURVE ( 'NONE', #140, #140, #189, .T. ) ;
#242 = PERSON ( 'UNSPECIFIED', 'UNSPECIFIED', 'UNSPECIFIED', ('UNSPECIFIED'), ('UNSPECIFIED'), ('UNSPECIFIED') ) ;
#243 = CARTESIAN_POINT ( 'NONE',  ( -7.268913458024791621E-30, 1.999999999999991340, -2.081899558550489630E-15 ) ) ;
#244 = LOCAL_TIME ( 13, 42, 14.00000000000000000, #182 ) ;
#245 = DIRECTION ( 'NONE',  ( 3.491481338843133355E-15, -1.224646799147352221E-16, 1.000000000000000000 ) ) ;
#246 = EDGE_CURVE ( 'NONE', #222, #222, #65, .T. ) ;
#247 = PRODUCT_DEFINITION_FORMATION_WITH_SPECIFIED_SOURCE ( 'ANY', '', #8, .NOT_KNOWN. ) ;
#248 = TOROIDAL_SURFACE ( 'NONE', #172, 0.3499999999999999778, 0.1000000000000001027 ) ;
#249 = AXIS2_PLACEMENT_3D ( 'NONE', #211, #106, #144 ) ;
#250 = CARTESIAN_POINT ( 'NONE',  ( -2.839103739574742144E-31, 0.0000000000000000000, -8.131516293641283255E-17 ) ) ;
#251 = CALENDAR_DATE ( 2021, 9, 12 ) ;
#252 = CARTESIAN_POINT ( 'NONE',  ( 1.312796983405018394E-13, -1.999999999999991784, 37.60000000000000853 ) ) ;
#253 = DIRECTION ( 'NONE',  ( 0.0000000000000000000, 0.0000000000000000000, 1.000000000000000000 ) ) ;
#254 = DIRECTION ( 'NONE',  ( 3.491481338843133355E-15, -1.224646799147352221E-16, 1.000000000000000000 ) ) ;
#255 = ORIENTED_EDGE ( 'NONE', *, *, #246, .T. ) ;
#256 = PERSON_AND_ORGANIZATION ( #242, #100 ) ;
#257 = CC_DESIGN_DATE_AND_TIME_ASSIGNMENT ( #119, #231, ( #77 ) ) ;
#258 =( LENGTH_UNIT ( ) NAMED_UNIT ( * ) SI_UNIT ( .MILLI., .METRE. ) );
#259 = AXIS2_PLACEMENT_3D ( 'NONE', #168, #107, #143 ) ;
#260 = DIRECTION ( 'NONE',  ( 1.000000000000000000, 0.0000000000000000000, -3.854941057726238689E-15 ) ) ;
#261 = DIRECTION ( 'NONE',  ( 1.000000000000000000, 0.0000000000000000000, -3.347928222888744221E-15 ) ) ;
#262 = DIRECTION ( 'NONE',  ( 4.275831445896955103E-31, 1.000000000000000000, 1.224646799147352221E-16 ) ) ;
#263 = PRODUCT_DEFINITION ( 'UNKNOWN', '', #247, #56 ) ;
ENDSEC;
END-ISO-10303-21;
