ISO-10303-21;
HEADER;
FILE_DESCRIPTION (( 'STEP AP203' ),
    '1' );
FILE_NAME ('392808.step',
    '2021-12-09T12:42:13',
    ( '' ),
    ( '' ),
    'SwSTEP 2.0',
    'SolidWorks 2019',
    '' );
FILE_SCHEMA (( 'CONFIG_CONTROL_DESIGN' ));
ENDSEC;

DATA;
#1 = CLOSED_SHELL ( 'NONE', ( #255, #49, #24, #108 ) ) ;
#2 = DIRECTION ( 'NONE',  ( 0.0000000000000000000, 1.000000000000000000, 0.0000000000000000000 ) ) ;
#3 = APPROVAL_ROLE ( '' ) ;
#4 = CONICAL_SURFACE ( 'NONE', #159, 1.999999999999991340, 0.7853981633974599363 ) ;
#5 = PERSON_AND_ORGANIZATION_ROLE ( 'classification_officer' ) ;
#6 = CARTESIAN_POINT ( 'NONE',  ( 0.3999999999999999667, 0.0000000000000000000, -1.491460225629734980E-15 ) ) ;
#7 = DATE_AND_TIME ( #91, #101 ) ;
#8 = PRODUCT_DEFINITION_SHAPE ( 'NONE', 'NONE',  #15 ) ;
#9 = DIRECTION ( 'NONE',  ( 1.000000000000000000, 0.0000000000000000000, -3.491481338843133355E-15 ) ) ;
#10 = PLANE ( 'NONE',  #188 ) ;
#11 = CARTESIAN_POINT ( 'NONE',  ( 0.4500000000000068945, 0.0000000000000000000, 1.999999999999998668 ) ) ;
#12 = TOROIDAL_SURFACE ( 'NONE', #241, 0.3999999999999999667, 0.05000000000000012768 ) ;
#13 = AXIS2_PLACEMENT_3D ( 'NONE', #237, #60, #259 ) ;
#14 = FACE_OUTER_BOUND ( 'NONE', #82, .T. ) ;
#15 = PRODUCT_DEFINITION ( 'UNKNOWN', '', #227, #102 ) ;
#16 = CARTESIAN_POINT ( 'NONE',  ( 1.326762908760390423E-13, -2.449293598294670423E-16, 38.00000000000000000 ) ) ;
#17 = CARTESIAN_POINT ( 'NONE',  ( -3.312287696170532428E-31, 0.0000000000000000000, -9.486769009248163798E-17 ) ) ;
#18 = DIRECTION ( 'NONE',  ( 1.000000000000000000, 0.0000000000000000000, -3.491481338843133355E-15 ) ) ;
#19 = FACE_OUTER_BOUND ( 'NONE', #84, .T. ) ;
#20 = FACE_OUTER_BOUND ( 'NONE', #61, .T. ) ;
#21 = FACE_OUTER_BOUND ( 'NONE', #185, .T. ) ;
#22 = AXIS2_PLACEMENT_3D ( 'NONE', #121, #180, #54 ) ;
#23 = EDGE_CURVE ( 'NONE', #51, #51, #257, .T. ) ;
#24 = ADVANCED_FACE ( 'NONE', ( #19, #20 ), #104, .T. ) ;
#25 = ORIENTED_EDGE ( 'NONE', *, *, #146, .T. ) ;
#26 = MANIFOLD_SOLID_BREP ( 'Corps-Déplacer/Copier1[2]', #1 ) ;
#27 = APPROVAL_DATE_TIME ( #132, #130 ) ;
#28 = ADVANCED_FACE ( 'NONE', ( #79 ), #164, .F. ) ;
#29 = DIRECTION ( 'NONE',  ( 3.491481338843133355E-15, 2.081899558550498702E-15, 1.000000000000000000 ) ) ;
#30 = CONICAL_SURFACE ( 'NONE', #198, 5.399999999999997691, 0.2617993877991426910 ) ;
#31 = DIRECTION ( 'NONE',  ( 4.275831445896955103E-31, 1.000000000000000000, 1.224646799147352221E-16 ) ) ;
#32 = VERTEX_POINT ( 'NONE', #34 ) ;
#33 = FACE_BOUND ( 'NONE', #105, .T. ) ;
#34 = CARTESIAN_POINT ( 'NONE',  ( 2.000000000000019540, 0.0000000000000000000, 8.047983746906664848 ) ) ;
#35 = LOCAL_TIME ( 13, 42, 13.00000000000000000, #131 ) ;
#36 = VERTEX_POINT ( 'NONE', #6 ) ;
#37 = ORIENTED_EDGE ( 'NONE', *, *, #135, .F. ) ;
#38 = EDGE_LOOP ( 'NONE', ( #263 ) ) ;
#39 = APPROVAL ( #225, 'UNSPECIFIED' ) ;
#40 = APPROVAL_PERSON_ORGANIZATION ( #242, #39, #64 ) ;
#41 = AXIS2_PLACEMENT_3D ( 'NONE', #98, #178, #50 ) ;
#42 = PERSON_AND_ORGANIZATION ( #173, #119 ) ;
#43 = CC_DESIGN_PERSON_AND_ORGANIZATION_ASSIGNMENT ( #226, #169, ( #227 ) ) ;
#44 = APPROVAL_DATE_TIME ( #7, #39 ) ;
#45 = DATE_AND_TIME ( #245, #261 ) ;
#46 = CIRCLE ( 'NONE', #151, 0.5181483474218598895 ) ;
#47 = FACE_OUTER_BOUND ( 'NONE', #187, .T. ) ;
#48 = CARTESIAN_POINT ( 'NONE',  ( 1.326762908760390423E-13, -1.599999999999991651, 38.00000000000000000 ) ) ;
#49 = ADVANCED_FACE ( 'NONE', ( #139, #206 ), #12, .T. ) ;
#50 = DIRECTION ( 'NONE',  ( 0.0000000000000000000, -1.000000000000000000, 0.0000000000000000000 ) ) ;
#51 = VERTEX_POINT ( 'NONE', #11 ) ;
#52 = PERSON_AND_ORGANIZATION ( #173, #119 ) ;
#53 = AXIS2_PLACEMENT_3D ( 'NONE', #17, #258, #194 ) ;
#54 = DIRECTION ( 'NONE',  ( 0.0000000000000000000, -1.000000000000000000, 0.0000000000000000000 ) ) ;
#55 = CARTESIAN_POINT ( 'NONE',  ( 8.790286409911524669E-15, 0.0000000000000000000, 2.517638090205029044 ) ) ;
#56 = UNCERTAINTY_MEASURE_WITH_UNIT (LENGTH_MEASURE( 1.000000000000000082E-05 ), #217, 'distance_accuracy_value', 'NONE');
#57 = ORIENTED_EDGE ( 'NONE', *, *, #65, .T. ) ;
#58 = AXIS2_PLACEMENT_3D ( 'NONE', #122, #204, #186 ) ;
#59 = CC_DESIGN_PERSON_AND_ORGANIZATION_ASSIGNMENT ( #190, #5, ( #127 ) ) ;
#60 = DIRECTION ( 'NONE',  ( 3.491481338843133355E-15, -1.224646799147352221E-16, 1.000000000000000000 ) ) ;
#61 = EDGE_LOOP ( 'NONE', ( #168 ) ) ;
#62 = ORIENTED_EDGE ( 'NONE', *, *, #166, .T. ) ;
#63 = EDGE_CURVE ( 'NONE', #68, #68, #136, .T. ) ;
#64 = APPROVAL_ROLE ( '' ) ;
#65 = EDGE_CURVE ( 'NONE', #115, #115, #46, .T. ) ;
#66 = DIRECTION ( 'NONE',  ( -3.491481338843133355E-15, 1.224646799147352221E-16, -1.000000000000000000 ) ) ;
#67 = COORDINATED_UNIVERSAL_TIME_OFFSET ( 1, 0, .AHEAD. ) ;
#68 = VERTEX_POINT ( 'NONE', #200 ) ;
#69 = DATE_AND_TIME ( #172, #220 ) ;
#70 = DIRECTION ( 'NONE',  ( 3.491481338843133355E-15, -0.0000000000000000000, 1.000000000000000000 ) ) ;
#71 = AXIS2_PLACEMENT_3D ( 'NONE', #81, #161, #232 ) ;
#72 = FACE_OUTER_BOUND ( 'NONE', #222, .T. ) ;
#73 = CC_DESIGN_APPROVAL ( #130, ( #227 ) ) ;
#74 = DIRECTION ( 'NONE',  ( 3.491481338843133355E-15, -0.0000000000000000000, 1.000000000000000000 ) ) ;
#75 = DIRECTION ( 'NONE',  ( 0.0000000000000000000, 0.0000000000000000000, 1.000000000000000000 ) ) ;
#76 = MECHANICAL_CONTEXT ( 'NONE', #90, 'mechanical' ) ;
#77 = DIRECTION ( 'NONE',  ( -3.491481338843133355E-15, 0.0000000000000000000, -1.000000000000000000 ) ) ;
#78 = EDGE_CURVE ( 'NONE', #215, #215, #117, .T. ) ;
#79 = FACE_OUTER_BOUND ( 'NONE', #112, .T. ) ;
#80 = CC_DESIGN_SECURITY_CLASSIFICATION ( #127, ( #227 ) ) ;
#81 = CARTESIAN_POINT ( 'NONE',  ( 1.745740669421567664E-16, 0.0000000000000000000, 0.05000000000000003053 ) ) ;
#82 = EDGE_LOOP ( 'NONE', ( #223 ) ) ;
#83 = AXIS2_PLACEMENT_3D ( 'NONE', #256, #77, #111 ) ;
#84 = EDGE_LOOP ( 'NONE', ( #128 ) ) ;
#85 = PRODUCT_RELATED_PRODUCT_CATEGORY ( 'detail', '', ( #133 ) ) ;
#86 = COORDINATED_UNIVERSAL_TIME_OFFSET ( 1, 0, .AHEAD. ) ;
#87 = CIRCLE ( 'NONE', #209, 0.4499999999999999001 ) ;
#88 = CC_DESIGN_APPROVAL ( #183, ( #15 ) ) ;
#89 = COORDINATED_UNIVERSAL_TIME_OFFSET ( 1, 0, .AHEAD. ) ;
#90 = APPLICATION_CONTEXT ( 'configuration controlled 3d designs of mechanical parts and assemblies' ) ;
#91 = CALENDAR_DATE ( 2021, 9, 12 ) ;
#92 = FACE_OUTER_BOUND ( 'NONE', #144, .T. ) ;
#93 = PERSON_AND_ORGANIZATION ( #173, #119 ) ;
#94 = CARTESIAN_POINT ( 'NONE',  ( 6.982962677686268288E-15, 0.0000000000000000000, 2.000000000000000444 ) ) ;
#95 = DIRECTION ( 'NONE',  ( -3.491481338843133355E-15, -2.081899558550498702E-15, -1.000000000000000000 ) ) ;
#96 = CARTESIAN_POINT ( 'NONE',  ( 0.5181483474218686602, 0.0000000000000000000, 2.517638090205027268 ) ) ;
#97 = AXIS2_PLACEMENT_3D ( 'NONE', #252, #75, #110 ) ;
#98 = CARTESIAN_POINT ( 'NONE',  ( 1.326762908760390423E-13, -2.449293598294670423E-16, 38.00000000000000000 ) ) ;
#99 = CARTESIAN_POINT ( 'NONE',  ( 6.982962677686277755E-15, 4.163799117101002926E-15, 2.000000000000003109 ) ) ;
#100 = DIRECTION ( 'NONE',  ( 3.491481338843133355E-15, -0.0000000000000000000, 1.000000000000000000 ) ) ;
#101 = LOCAL_TIME ( 13, 42, 13.00000000000000000, #67 ) ;
#102 = DESIGN_CONTEXT ( 'detailed design', #233, 'design' ) ;
#103 = ADVANCED_FACE ( 'NONE', ( #21 ), #114, .F. ) ;
#104 = CYLINDRICAL_SURFACE ( 'NONE', #216, 0.4500000000000000111 ) ;
#105 = EDGE_LOOP ( 'NONE', ( #57 ) ) ;
#106 = CIRCLE ( 'NONE', #22, 1.999999999999991784 ) ;
#107 = TOROIDAL_SURFACE ( 'NONE', #249, 2.449999999999999734, 2.000000000000000000 ) ;
#108 = ADVANCED_FACE ( 'NONE', ( #197 ), #10, .F. ) ;
#109 = PERSON_AND_ORGANIZATION_ROLE ( 'creator' ) ;
#110 = DIRECTION ( 'NONE',  ( 1.000000000000000000, 0.0000000000000000000, 0.0000000000000000000 ) ) ;
#111 = DIRECTION ( 'NONE',  ( 1.000000000000000000, 0.0000000000000000000, -3.469446951953629177E-15 ) ) ;
#112 = EDGE_LOOP ( 'NONE', ( #219 ) ) ;
#113 = DIRECTION ( 'NONE',  ( 3.491481338843133355E-15, -0.0000000000000000000, 1.000000000000000000 ) ) ;
#114 = PLANE ( 'NONE',  #142 ) ;
#115 = VERTEX_POINT ( 'NONE', #96 ) ;
#116 = MANIFOLD_SOLID_BREP ( 'Corps-Déplacer/Copier1[1]', #176 ) ;
#117 = CIRCLE ( 'NONE', #202, 1.599999999999991429 ) ;
#118 = CARTESIAN_POINT ( 'NONE',  ( 0.4500000000000068945, 0.0000000000000000000, 1.999999999999998668 ) ) ;
#119 = ORGANIZATION ( 'UNSPECIFIED', 'UNSPECIFIED', '' ) ;
#120 = PERSON_AND_ORGANIZATION ( #173, #119 ) ;
#121 = CARTESIAN_POINT ( 'NONE',  ( 1.312796983405018394E-13, -1.959434878635740332E-16, 37.60000000000000853 ) ) ;
#122 = CARTESIAN_POINT ( 'NONE',  ( 6.982962677686268288E-15, 0.0000000000000000000, 2.000000000000000444 ) ) ;
#123 = CARTESIAN_POINT ( 'NONE',  ( 1.326762908760390423E-13, -2.449293598294670423E-16, 38.00000000000000000 ) ) ;
#124 = EDGE_LOOP ( 'NONE', ( #162 ) ) ;
#125 = EDGE_LOOP ( 'NONE', ( #140 ) ) ;
#126 = AXIS2_PLACEMENT_3D ( 'NONE', #152, #29, #230 ) ;
#127 = SECURITY_CLASSIFICATION ( '', '', #147 ) ;
#128 = ORIENTED_EDGE ( 'NONE', *, *, #63, .T. ) ;
#129 = ADVANCED_BREP_SHAPE_REPRESENTATION ( '392808', ( #116, #26, #97 ), #143 ) ;
#130 = APPROVAL ( #189, 'UNSPECIFIED' ) ;
#131 = COORDINATED_UNIVERSAL_TIME_OFFSET ( 1, 0, .AHEAD. ) ;
#132 = DATE_AND_TIME ( #213, #35 ) ;
#133 = PRODUCT ( '392808', '392808', '', ( #76 ) ) ;
#134 = FACE_OUTER_BOUND ( 'NONE', #38, .T. ) ;
#135 = EDGE_CURVE ( 'NONE', #179, #179, #106, .T. ) ;
#136 = CIRCLE ( 'NONE', #71, 0.4500000000000001221 ) ;
#137 = APPLICATION_PROTOCOL_DEFINITION ( 'international standard', 'config_control_design', 1994, #233 ) ;
#138 = ORIENTED_EDGE ( 'NONE', *, *, #65, .F. ) ;
#139 = FACE_OUTER_BOUND ( 'NONE', #224, .T. ) ;
#140 = ORIENTED_EDGE ( 'NONE', *, *, #145, .F. ) ;
#141 = CC_DESIGN_DATE_AND_TIME_ASSIGNMENT ( #69, #170, ( #127 ) ) ;
#142 = AXIS2_PLACEMENT_3D ( 'NONE', #16, #231, #31 ) ;
#143 =( GEOMETRIC_REPRESENTATION_CONTEXT ( 3 ) GLOBAL_UNCERTAINTY_ASSIGNED_CONTEXT ( ( #56 ) ) GLOBAL_UNIT_ASSIGNED_CONTEXT ( ( #217, #177, #158 ) ) REPRESENTATION_CONTEXT ( 'NONE', 'WORKASPACE' ) );
#144 = EDGE_LOOP ( 'NONE', ( #62 ) ) ;
#145 = EDGE_CURVE ( 'NONE', #32, #32, #171, .T. ) ;
#146 = EDGE_CURVE ( 'NONE', #36, #36, #218, .T. ) ;
#147 = SECURITY_CLASSIFICATION_LEVEL ( 'unclassified' ) ;
#148 = DATE_TIME_ROLE ( 'creation_date' ) ;
#149 = CARTESIAN_POINT ( 'NONE',  ( 1.312796983405018394E-13, -1.999999999999991784, 37.60000000000000853 ) ) ;
#150 = DIRECTION ( 'NONE',  ( 1.000000000000000000, 0.0000000000000000000, -3.212450881438533030E-15 ) ) ;
#151 = AXIS2_PLACEMENT_3D ( 'NONE', #55, #234, #235 ) ;
#152 = CARTESIAN_POINT ( 'NONE',  ( -7.268913458024791621E-30, 1.999999999999991340, -2.081899558550489630E-15 ) ) ;
#153 = COORDINATED_UNIVERSAL_TIME_OFFSET ( 1, 0, .AHEAD. ) ;
#154 = PLANE ( 'NONE',  #126 ) ;
#155 = CYLINDRICAL_SURFACE ( 'NONE', #41, 1.999999999999991340 ) ;
#156 = VERTEX_POINT ( 'NONE', #118 ) ;
#157 = CC_DESIGN_PERSON_AND_ORGANIZATION_ASSIGNMENT ( #42, #109, ( #227 ) ) ;
#158 =( NAMED_UNIT ( * ) SI_UNIT ( $, .STERADIAN. ) SOLID_ANGLE_UNIT ( ) );
#159 = AXIS2_PLACEMENT_3D ( 'NONE', #191, #66, #2 ) ;
#160 = LOCAL_TIME ( 13, 42, 13.00000000000000000, #153 ) ;
#161 = DIRECTION ( 'NONE',  ( 3.491481338843133355E-15, -0.0000000000000000000, 1.000000000000000000 ) ) ;
#162 = ORIENTED_EDGE ( 'NONE', *, *, #23, .T. ) ;
#163 = EDGE_LOOP ( 'NONE', ( #262 ) ) ;
#164 = PLANE ( 'NONE',  #13 ) ;
#165 = ADVANCED_FACE ( 'NONE', ( #92, #247 ), #107, .F. ) ;
#166 = EDGE_CURVE ( 'NONE', #156, #156, #87, .T. ) ;
#167 = CARTESIAN_POINT ( 'NONE',  ( 1.745740669421567664E-16, 0.0000000000000000000, 0.05000000000000003053 ) ) ;
#168 = ORIENTED_EDGE ( 'NONE', *, *, #23, .F. ) ;
#169 = PERSON_AND_ORGANIZATION_ROLE ( 'design_supplier' ) ;
#170 = DATE_TIME_ROLE ( 'classification_date' ) ;
#171 = CIRCLE ( 'NONE', #83, 1.999999999999991340 ) ;
#172 = CALENDAR_DATE ( 2021, 9, 12 ) ;
#173 = PERSON ( 'UNSPECIFIED', 'UNSPECIFIED', 'UNSPECIFIED', ('UNSPECIFIED'), ('UNSPECIFIED'), ('UNSPECIFIED') ) ;
#174 = APPROVAL_DATE_TIME ( #45, #183 ) ;
#175 = DIRECTION ( 'NONE',  ( 1.000000000000000000, 0.0000000000000000000, -3.854941057726238689E-15 ) ) ;
#176 = CLOSED_SHELL ( 'NONE', ( #192, #254, #103, #196, #165, #28 ) ) ;
#177 =( NAMED_UNIT ( * ) PLANE_ANGLE_UNIT ( ) SI_UNIT ( $, .RADIAN. ) );
#178 = DIRECTION ( 'NONE',  ( 3.491481338843133355E-15, -1.224646799147352221E-16, 1.000000000000000000 ) ) ;
#179 = VERTEX_POINT ( 'NONE', #149 ) ;
#180 = DIRECTION ( 'NONE',  ( 3.491481338843133355E-15, -1.224646799147352221E-16, 1.000000000000000000 ) ) ;
#181 = DIRECTION ( 'NONE',  ( -7.268913458024823851E-30, 1.000000000000000000, -2.081899558550498702E-15 ) ) ;
#182 = CARTESIAN_POINT ( 'NONE',  ( 0.0000000000000000000, 0.0000000000000000000, 0.0000000000000000000 ) ) ;
#183 = APPROVAL ( #212, 'UNSPECIFIED' ) ;
#184 = DIRECTION ( 'NONE',  ( 1.000000000000000000, 0.0000000000000000000, -3.491481338843133355E-15 ) ) ;
#185 = EDGE_LOOP ( 'NONE', ( #208 ) ) ;
#186 = DIRECTION ( 'NONE',  ( 1.000000000000000000, 0.0000000000000000000, -3.854941057726238689E-15 ) ) ;
#187 = EDGE_LOOP ( 'NONE', ( #37 ) ) ;
#188 = AXIS2_PLACEMENT_3D ( 'NONE', #99, #95, #181 ) ;
#189 = APPROVAL_STATUS ( 'not_yet_approved' ) ;
#190 = PERSON_AND_ORGANIZATION ( #173, #119 ) ;
#191 = CARTESIAN_POINT ( 'NONE',  ( 1.312796983405018394E-13, -1.959434878635740332E-16, 37.60000000000000853 ) ) ;
#192 = ADVANCED_FACE ( 'NONE', ( #47, #251 ), #155, .T. ) ;
#193 = APPROVAL_ROLE ( '' ) ;
#194 = DIRECTION ( 'NONE',  ( 1.000000000000000000, 0.0000000000000000000, -3.491481338843133750E-15 ) ) ;
#195 = PERSON_AND_ORGANIZATION_ROLE ( 'design_owner' ) ;
#196 = ADVANCED_FACE ( 'NONE', ( #33, #14 ), #30, .T. ) ;
#197 = FACE_OUTER_BOUND ( 'NONE', #124, .T. ) ;
#198 = AXIS2_PLACEMENT_3D ( 'NONE', #246, #70, #150 ) ;
#199 = CARTESIAN_POINT ( 'NONE',  ( 6.982962677686266711E-15, 0.0000000000000000000, 2.000000000000000000 ) ) ;
#200 = CARTESIAN_POINT ( 'NONE',  ( 0.4500000000000002331, 0.0000000000000000000, 0.04999999999999845540 ) ) ;
#201 = DIRECTION ( 'NONE',  ( 3.491481338843133355E-15, -0.0000000000000000000, 1.000000000000000000 ) ) ;
#202 = AXIS2_PLACEMENT_3D ( 'NONE', #123, #221, #205 ) ;
#203 = ORIENTED_EDGE ( 'NONE', *, *, #78, .F. ) ;
#204 = DIRECTION ( 'NONE',  ( 3.491481338843133355E-15, -0.0000000000000000000, 1.000000000000000000 ) ) ;
#205 = DIRECTION ( 'NONE',  ( 0.0000000000000000000, -1.000000000000000000, 0.0000000000000000000 ) ) ;
#206 = FACE_OUTER_BOUND ( 'NONE', #163, .T. ) ;
#207 = EDGE_LOOP ( 'NONE', ( #203 ) ) ;
#208 = ORIENTED_EDGE ( 'NONE', *, *, #78, .T. ) ;
#209 = AXIS2_PLACEMENT_3D ( 'NONE', #94, #74, #175 ) ;
#210 = DATE_AND_TIME ( #229, #160 ) ;
#211 = CC_DESIGN_PERSON_AND_ORGANIZATION_ASSIGNMENT ( #52, #195, ( #133 ) ) ;
#212 = APPROVAL_STATUS ( 'not_yet_approved' ) ;
#213 = CALENDAR_DATE ( 2021, 9, 12 ) ;
#214 = APPROVAL_PERSON_ORGANIZATION ( #243, #130, #3 ) ;
#215 = VERTEX_POINT ( 'NONE', #48 ) ;
#216 = AXIS2_PLACEMENT_3D ( 'NONE', #182, #100, #184 ) ;
#217 =( LENGTH_UNIT ( ) NAMED_UNIT ( * ) SI_UNIT ( .MILLI., .METRE. ) );
#218 = CIRCLE ( 'NONE', #53, 0.3999999999999999667 ) ;
#219 = ORIENTED_EDGE ( 'NONE', *, *, #166, .F. ) ;
#220 = LOCAL_TIME ( 13, 42, 13.00000000000000000, #86 ) ;
#221 = DIRECTION ( 'NONE',  ( 3.491481338843133355E-15, -1.224646799147352221E-16, 1.000000000000000000 ) ) ;
#222 = EDGE_LOOP ( 'NONE', ( #244 ) ) ;
#223 = ORIENTED_EDGE ( 'NONE', *, *, #145, .T. ) ;
#224 = EDGE_LOOP ( 'NONE', ( #25 ) ) ;
#225 = APPROVAL_STATUS ( 'not_yet_approved' ) ;
#226 = PERSON_AND_ORGANIZATION ( #173, #119 ) ;
#227 = PRODUCT_DEFINITION_FORMATION_WITH_SPECIFIED_SOURCE ( 'ANY', '', #133, .NOT_KNOWN. ) ;
#228 = FACE_BOUND ( 'NONE', #207, .T. ) ;
#229 = CALENDAR_DATE ( 2021, 9, 12 ) ;
#230 = DIRECTION ( 'NONE',  ( 7.268913458024823851E-30, -1.000000000000000000, 2.081899558550498702E-15 ) ) ;
#231 = DIRECTION ( 'NONE',  ( -3.491481338843133355E-15, 1.224646799147352221E-16, -1.000000000000000000 ) ) ;
#232 = DIRECTION ( 'NONE',  ( 1.000000000000000000, 0.0000000000000000000, -3.493540333564402037E-15 ) ) ;
#233 = APPLICATION_CONTEXT ( 'configuration controlled 3d designs of mechanical parts and assemblies' ) ;
#234 = DIRECTION ( 'NONE',  ( 3.491481338843133355E-15, -0.0000000000000000000, 1.000000000000000000 ) ) ;
#235 = DIRECTION ( 'NONE',  ( 1.000000000000000000, 0.0000000000000000000, -3.347928222888744221E-15 ) ) ;
#236 = APPROVAL_PERSON_ORGANIZATION ( #120, #183, #193 ) ;
#237 = CARTESIAN_POINT ( 'NONE',  ( 6.982962677686269866E-15, 4.163799117101000559E-15, 2.000000000000000888 ) ) ;
#238 = EDGE_LOOP ( 'NONE', ( #138 ) ) ;
#239 = CC_DESIGN_PERSON_AND_ORGANIZATION_ASSIGNMENT ( #93, #248, ( #15 ) ) ;
#240 = SHAPE_DEFINITION_REPRESENTATION ( #8, #129 ) ;
#241 = AXIS2_PLACEMENT_3D ( 'NONE', #167, #201, #18 ) ;
#242 = PERSON_AND_ORGANIZATION ( #173, #119 ) ;
#243 = PERSON_AND_ORGANIZATION ( #173, #119 ) ;
#244 = ORIENTED_EDGE ( 'NONE', *, *, #146, .F. ) ;
#245 = CALENDAR_DATE ( 2021, 9, 12 ) ;
#246 = CARTESIAN_POINT ( 'NONE',  ( 7.240269661845877711E-14, 0.0000000000000000000, 20.73695649264121954 ) ) ;
#247 = FACE_OUTER_BOUND ( 'NONE', #238, .T. ) ;
#248 = PERSON_AND_ORGANIZATION_ROLE ( 'creator' ) ;
#249 = AXIS2_PLACEMENT_3D ( 'NONE', #199, #113, #9 ) ;
#250 = CC_DESIGN_APPROVAL ( #39, ( #127 ) ) ;
#251 = FACE_OUTER_BOUND ( 'NONE', #125, .T. ) ;
#252 = CARTESIAN_POINT ( 'NONE',  ( 0.0000000000000000000, 0.0000000000000000000, 0.0000000000000000000 ) ) ;
#253 = APPLICATION_PROTOCOL_DEFINITION ( 'international standard', 'config_control_design', 1994, #90 ) ;
#254 = ADVANCED_FACE ( 'NONE', ( #228, #134 ), #4, .T. ) ;
#255 = ADVANCED_FACE ( 'NONE', ( #72 ), #154, .F. ) ;
#256 = CARTESIAN_POINT ( 'NONE',  ( 2.809938506763748478E-14, 0.0000000000000000000, 8.047983746906671954 ) ) ;
#257 = CIRCLE ( 'NONE', #58, 0.4499999999999999001 ) ;
#258 = DIRECTION ( 'NONE',  ( 3.491481338843133355E-15, -0.0000000000000000000, 1.000000000000000000 ) ) ;
#259 = DIRECTION ( 'NONE',  ( -4.275831445896955103E-31, -1.000000000000000000, -1.224646799147352221E-16 ) ) ;
#260 = CC_DESIGN_DATE_AND_TIME_ASSIGNMENT ( #210, #148, ( #15 ) ) ;
#261 = LOCAL_TIME ( 13, 42, 13.00000000000000000, #89 ) ;
#262 = ORIENTED_EDGE ( 'NONE', *, *, #63, .F. ) ;
#263 = ORIENTED_EDGE ( 'NONE', *, *, #135, .T. ) ;
ENDSEC;
END-ISO-10303-21;
