ISO-10303-21;
HEADER;
FILE_DESCRIPTION (( 'STEP AP203' ),
    '1' );
FILE_NAME ('392807.step',
    '2021-12-09T12:42:13',
    ( '' ),
    ( '' ),
    'SwSTEP 2.0',
    'SolidWorks 2019',
    '' );
FILE_SCHEMA (( 'CONFIG_CONTROL_DESIGN' ));
ENDSEC;

DATA;
#1 =( NAMED_UNIT ( * ) PLANE_ANGLE_UNIT ( ) SI_UNIT ( $, .RADIAN. ) );
#2 = ADVANCED_FACE ( 'NONE', ( #200, #36 ), #197, .F. ) ;
#3 = ORIENTED_EDGE ( 'NONE', *, *, #109, .F. ) ;
#4 = CYLINDRICAL_SURFACE ( 'NONE', #40, 1.999999999999991340 ) ;
#5 = CC_DESIGN_APPROVAL ( #140, ( #84 ) ) ;
#6 = DIRECTION ( 'NONE',  ( -3.491481338843133355E-15, -2.340436105037159820E-15, -1.000000000000000000 ) ) ;
#7 = EDGE_LOOP ( 'NONE', ( #134 ) ) ;
#8 = PLANE ( 'NONE',  #45 ) ;
#9 = APPROVAL_STATUS ( 'not_yet_approved' ) ;
#10 = EDGE_CURVE ( 'NONE', #89, #89, #173, .T. ) ;
#11 = EDGE_LOOP ( 'NONE', ( #186 ) ) ;
#12 = CARTESIAN_POINT ( 'NONE',  ( 1.312796983405018394E-13, -1.999999999999991784, 37.60000000000000853 ) ) ;
#13 = PERSON_AND_ORGANIZATION ( #212, #87 ) ;
#14 = CALENDAR_DATE ( 2021, 9, 12 ) ;
#15 = CARTESIAN_POINT ( 'NONE',  ( 1.312796983405018394E-13, -1.956728476869669001E-16, 37.60000000000000853 ) ) ;
#16 = CIRCLE ( 'NONE', #225, 0.3000000000000000444 ) ;
#17 = DIRECTION ( 'NONE',  ( 1.000000000000000000, 0.0000000000000000000, -3.491481338843133355E-15 ) ) ;
#18 = DIRECTION ( 'NONE',  ( 1.000000000000000000, 0.0000000000000000000, -3.252606517456511724E-15 ) ) ;
#19 = LOCAL_TIME ( 13, 42, 13.00000000000000000, #182 ) ;
#20 = CARTESIAN_POINT ( 'NONE',  ( 8.091990142142897998E-15, 0.0000000000000000000, 2.317638090205029311 ) ) ;
#21 = PERSON_AND_ORGANIZATION_ROLE ( 'creator' ) ;
#22 = CARTESIAN_POINT ( 'NONE',  ( 0.4681483474218682828, 0.0000000000000000000, 2.317638090205027535 ) ) ;
#23 = ADVANCED_FACE ( 'NONE', ( #157, #176 ), #263, .T. ) ;
#24 = CARTESIAN_POINT ( 'NONE',  ( 2.000000000000019540, 0.0000000000000000000, 8.034586287285110373 ) ) ;
#25 = AXIS2_PLACEMENT_3D ( 'NONE', #178, #232, #116 ) ;
#26 = ORIENTED_EDGE ( 'NONE', *, *, #142, .F. ) ;
#27 = ORIENTED_EDGE ( 'NONE', *, *, #103, .F. ) ;
#28 = ADVANCED_FACE ( 'NONE', ( #258, #117 ), #160, .T. ) ;
#29 = PERSON_AND_ORGANIZATION_ROLE ( 'design_supplier' ) ;
#30 = CLOSED_SHELL ( 'NONE', ( #201, #23, #180, #28, #2, #46 ) ) ;
#31 = APPROVAL_PERSON_ORGANIZATION ( #138, #140, #42 ) ;
#32 = APPROVAL ( #9, 'UNSPECIFIED' ) ;
#33 = ORIENTED_EDGE ( 'NONE', *, *, #122, .T. ) ;
#34 = APPLICATION_CONTEXT ( 'configuration controlled 3d designs of mechanical parts and assemblies' ) ;
#35 = CC_DESIGN_APPROVAL ( #54, ( #233 ) ) ;
#36 = FACE_OUTER_BOUND ( 'NONE', #7, .T. ) ;
#37 = DIRECTION ( 'NONE',  ( 1.000000000000000000, 0.0000000000000000000, -3.469446951953629177E-15 ) ) ;
#38 = DIRECTION ( 'NONE',  ( 0.0000000000000000000, -1.000000000000000000, 0.0000000000000000000 ) ) ;
#39 = APPROVAL_DATE_TIME ( #100, #54 ) ;
#40 = AXIS2_PLACEMENT_3D ( 'NONE', #211, #63, #83 ) ;
#41 = PRODUCT_RELATED_PRODUCT_CATEGORY ( 'detail', '', ( #162 ) ) ;
#42 = APPROVAL_ROLE ( '' ) ;
#43 = VERTEX_POINT ( 'NONE', #222 ) ;
#44 = CIRCLE ( 'NONE', #187, 0.4000000000000001887 ) ;
#45 = AXIS2_PLACEMENT_3D ( 'NONE', #126, #6, #62 ) ;
#46 = ADVANCED_FACE ( 'NONE', ( #149 ), #55, .F. ) ;
#47 = FACE_OUTER_BOUND ( 'NONE', #169, .T. ) ;
#48 = AXIS2_PLACEMENT_3D ( 'NONE', #255, #221, #216 ) ;
#49 = ORIENTED_EDGE ( 'NONE', *, *, #103, .T. ) ;
#50 = CARTESIAN_POINT ( 'NONE',  ( 3.491481338843133848E-16, 0.0000000000000000000, 0.1000000000000000194 ) ) ;
#51 = UNCERTAINTY_MEASURE_WITH_UNIT (LENGTH_MEASURE( 1.000000000000000082E-05 ), #185, 'distance_accuracy_value', 'NONE');
#52 = DIRECTION ( 'NONE',  ( 1.000000000000000000, 0.0000000000000000000, -3.705499518539588955E-15 ) ) ;
#53 = ORIENTED_EDGE ( 'NONE', *, *, #96, .T. ) ;
#54 = APPROVAL ( #207, 'UNSPECIFIED' ) ;
#55 = PLANE ( 'NONE',  #177 ) ;
#56 = CARTESIAN_POINT ( 'NONE',  ( 0.0000000000000000000, 0.0000000000000000000, 0.0000000000000000000 ) ) ;
#57 = DIRECTION ( 'NONE',  ( 3.491481338843133355E-15, -0.0000000000000000000, 1.000000000000000000 ) ) ;
#58 = APPLICATION_PROTOCOL_DEFINITION ( 'international standard', 'config_control_design', 1994, #259 ) ;
#59 = PRODUCT_DEFINITION_SHAPE ( 'NONE', 'NONE',  #233 ) ;
#60 = SECURITY_CLASSIFICATION ( '', '', #86 ) ;
#61 = EDGE_CURVE ( 'NONE', #194, #194, #139, .T. ) ;
#62 = DIRECTION ( 'NONE',  ( -8.171588985491949222E-30, 1.000000000000000000, -2.340436105037159820E-15 ) ) ;
#63 = DIRECTION ( 'NONE',  ( 3.491481338843133355E-15, -1.231412803562530918E-16, 1.000000000000000000 ) ) ;
#64 = CARTESIAN_POINT ( 'NONE',  ( 1.326762908760390423E-13, -2.449293598294670423E-16, 38.00000000000000000 ) ) ;
#65 = EDGE_CURVE ( 'NONE', #91, #91, #44, .T. ) ;
#66 = DATE_TIME_ROLE ( 'classification_date' ) ;
#67 = AXIS2_PLACEMENT_3D ( 'NONE', #50, #98, #181 ) ;
#68 = LOCAL_TIME ( 13, 42, 13.00000000000000000, #101 ) ;
#69 = CARTESIAN_POINT ( 'NONE',  ( 0.4000000000000064615, 0.0000000000000000000, 1.799999999999998934 ) ) ;
#70 = COORDINATED_UNIVERSAL_TIME_OFFSET ( 1, 0, .AHEAD. ) ;
#71 = EDGE_LOOP ( 'NONE', ( #27 ) ) ;
#72 = AXIS2_PLACEMENT_3D ( 'NONE', #202, #151, #38 ) ;
#73 = EDGE_LOOP ( 'NONE', ( #33 ) ) ;
#74 = DIRECTION ( 'NONE',  ( 0.0000000000000000000, 1.000000000000000000, 0.0000000000000000000 ) ) ;
#75 = CC_DESIGN_PERSON_AND_ORGANIZATION_ASSIGNMENT ( #156, #21, ( #233 ) ) ;
#76 = DIRECTION ( 'NONE',  ( 1.000000000000000000, 0.0000000000000000000, -3.252606517456511724E-15 ) ) ;
#77 = AXIS2_PLACEMENT_3D ( 'NONE', #199, #234, #18 ) ;
#78 = DIRECTION ( 'NONE',  ( 3.491481338843133355E-15, -0.0000000000000000000, 1.000000000000000000 ) ) ;
#79 = FACE_OUTER_BOUND ( 'NONE', #165, .T. ) ;
#80 = PERSON_AND_ORGANIZATION_ROLE ( 'design_owner' ) ;
#81 = CALENDAR_DATE ( 2021, 9, 12 ) ;
#82 = AXIS2_PLACEMENT_3D ( 'NONE', #155, #220, #37 ) ;
#83 = DIRECTION ( 'NONE',  ( 0.0000000000000000000, -1.000000000000000000, 0.0000000000000000000 ) ) ;
#84 = PRODUCT_DEFINITION_FORMATION_WITH_SPECIFIED_SOURCE ( 'ANY', '', #162, .NOT_KNOWN. ) ;
#85 = CARTESIAN_POINT ( 'NONE',  ( -8.171588985491915591E-30, 1.999999999999991340, -2.340436105037149565E-15 ) ) ;
#86 = SECURITY_CLASSIFICATION_LEVEL ( 'unclassified' ) ;
#87 = ORGANIZATION ( 'UNSPECIFIED', 'UNSPECIFIED', '' ) ;
#88 = CIRCLE ( 'NONE', #77, 0.4000000000000001887 ) ;
#89 = VERTEX_POINT ( 'NONE', #168 ) ;
#90 = ORIENTED_EDGE ( 'NONE', *, *, #65, .T. ) ;
#91 = VERTEX_POINT ( 'NONE', #69 ) ;
#92 = PERSON_AND_ORGANIZATION ( #212, #87 ) ;
#93 = EDGE_LOOP ( 'NONE', ( #108 ) ) ;
#94 = AXIS2_PLACEMENT_3D ( 'NONE', #20, #137, #52 ) ;
#95 = DIRECTION ( 'NONE',  ( 1.000000000000000000, 0.0000000000000000000, -3.491481338843132961E-15 ) ) ;
#96 = EDGE_CURVE ( 'NONE', #170, #170, #191, .T. ) ;
#97 = CARTESIAN_POINT ( 'NONE',  ( 7.105288106317806774E-14, 0.0000000000000000000, 20.35035395226277188 ) ) ;
#98 = DIRECTION ( 'NONE',  ( 3.491481338843133355E-15, -0.0000000000000000000, 1.000000000000000000 ) ) ;
#99 = FACE_OUTER_BOUND ( 'NONE', #215, .T. ) ;
#100 = DATE_AND_TIME ( #136, #203 ) ;
#101 = COORDINATED_UNIVERSAL_TIME_OFFSET ( 1, 0, .AHEAD. ) ;
#102 = APPROVAL_ROLE ( '' ) ;
#103 = EDGE_CURVE ( 'NONE', #238, #238, #88, .T. ) ;
#104 = DIRECTION ( 'NONE',  ( 4.299454824051081656E-31, 1.000000000000000000, 1.231412803562530918E-16 ) ) ;
#105 = EDGE_LOOP ( 'NONE', ( #213 ) ) ;
#106 = FACE_OUTER_BOUND ( 'NONE', #227, .T. ) ;
#107 = APPROVAL_DATE_TIME ( #174, #32 ) ;
#108 = ORIENTED_EDGE ( 'NONE', *, *, #96, .F. ) ;
#109 = EDGE_CURVE ( 'NONE', #206, #206, #163, .T. ) ;
#110 = PERSON_AND_ORGANIZATION ( #212, #87 ) ;
#111 = CC_DESIGN_DATE_AND_TIME_ASSIGNMENT ( #209, #66, ( #60 ) ) ;
#112 = CYLINDRICAL_SURFACE ( 'NONE', #208, 0.4000000000000001887 ) ;
#113 = AXIS2_PLACEMENT_3D ( 'NONE', #15, #175, #74 ) ;
#114 = CARTESIAN_POINT ( 'NONE',  ( 6.284666409917640828E-15, 0.0000000000000000000, 1.800000000000000266 ) ) ;
#115 = CC_DESIGN_PERSON_AND_ORGANIZATION_ASSIGNMENT ( #241, #80, ( #162 ) ) ;
#116 = DIRECTION ( 'NONE',  ( 1.000000000000000000, 0.0000000000000000000, -3.491481338843133750E-15 ) ) ;
#117 = FACE_OUTER_BOUND ( 'NONE', #253, .T. ) ;
#118 = DIRECTION ( 'NONE',  ( 3.491481338843133355E-15, -0.0000000000000000000, 1.000000000000000000 ) ) ;
#119 = VERTEX_POINT ( 'NONE', #22 ) ;
#120 = CALENDAR_DATE ( 2021, 9, 12 ) ;
#121 = MECHANICAL_CONTEXT ( 'NONE', #259, 'mechanical' ) ;
#122 = EDGE_CURVE ( 'NONE', #119, #119, #217, .T. ) ;
#123 = CC_DESIGN_PERSON_AND_ORGANIZATION_ASSIGNMENT ( #92, #164, ( #60 ) ) ;
#124 = AXIS2_PLACEMENT_3D ( 'NONE', #64, #189, #104 ) ;
#125 = EDGE_LOOP ( 'NONE', ( #193 ) ) ;
#126 = CARTESIAN_POINT ( 'NONE',  ( 6.284666409917652661E-15, 4.212784989066896354E-15, 1.800000000000003597 ) ) ;
#127 = DATE_AND_TIME ( #81, #68 ) ;
#128 = LOCAL_TIME ( 13, 42, 13.00000000000000000, #171 ) ;
#129 = PERSON_AND_ORGANIZATION ( #212, #87 ) ;
#130 = ORIENTED_EDGE ( 'NONE', *, *, #142, .T. ) ;
#131 = DIRECTION ( 'NONE',  ( 3.491481338843133355E-15, -0.0000000000000000000, 1.000000000000000000 ) ) ;
#132 = FACE_OUTER_BOUND ( 'NONE', #190, .T. ) ;
#133 = LOCAL_TIME ( 13, 42, 13.00000000000000000, #70 ) ;
#134 = ORIENTED_EDGE ( 'NONE', *, *, #122, .F. ) ;
#135 = DIRECTION ( 'NONE',  ( 3.491481338843133355E-15, -1.231412803562530918E-16, 1.000000000000000000 ) ) ;
#136 = CALENDAR_DATE ( 2021, 9, 12 ) ;
#137 = DIRECTION ( 'NONE',  ( 3.491481338843133355E-15, -0.0000000000000000000, 1.000000000000000000 ) ) ;
#138 = PERSON_AND_ORGANIZATION ( #212, #87 ) ;
#139 = CIRCLE ( 'NONE', #72, 1.999999999999991784 ) ;
#140 = APPROVAL ( #223, 'UNSPECIFIED' ) ;
#141 = APPLICATION_PROTOCOL_DEFINITION ( 'international standard', 'config_control_design', 1994, #34 ) ;
#142 = EDGE_CURVE ( 'NONE', #43, #43, #16, .T. ) ;
#143 = DIRECTION ( 'NONE',  ( 3.491481338843133355E-15, 2.340436105037159820E-15, 1.000000000000000000 ) ) ;
#144 = AXIS2_PLACEMENT_3D ( 'NONE', #56, #224, #183 ) ;
#145 = PLANE ( 'NONE',  #124 ) ;
#146 = ADVANCED_FACE ( 'NONE', ( #204, #99 ), #112, .T. ) ;
#147 = EDGE_LOOP ( 'NONE', ( #49 ) ) ;
#148 = PERSON_AND_ORGANIZATION_ROLE ( 'creator' ) ;
#149 = FACE_OUTER_BOUND ( 'NONE', #71, .T. ) ;
#150 = DESIGN_CONTEXT ( 'detailed design', #34, 'design' ) ;
#151 = DIRECTION ( 'NONE',  ( 3.491481338843133355E-15, -1.231412803562530918E-16, 1.000000000000000000 ) ) ;
#152 = MANIFOLD_SOLID_BREP ( 'Corps-Déplacer/Copier1[2]', #257 ) ;
#153 = AXIS2_PLACEMENT_3D ( 'NONE', #97, #78, #256 ) ;
#154 = CARTESIAN_POINT ( 'NONE',  ( 3.491481338843133848E-16, 0.0000000000000000000, 0.1000000000000000194 ) ) ;
#155 = CARTESIAN_POINT ( 'NONE',  ( 2.805260808738092503E-14, 0.0000000000000000000, 8.034586287285117479 ) ) ;
#156 = PERSON_AND_ORGANIZATION ( #212, #87 ) ;
#157 = FACE_BOUND ( 'NONE', #93, .T. ) ;
#158 = DATE_TIME_ROLE ( 'creation_date' ) ;
#159 = CARTESIAN_POINT ( 'NONE',  ( 0.4000000000000064615, 0.0000000000000000000, 1.799999999999998934 ) ) ;
#160 = CONICAL_SURFACE ( 'NONE', #153, 5.299999999999997158, 0.2617993877991426355 ) ;
#161 = CC_DESIGN_PERSON_AND_ORGANIZATION_ASSIGNMENT ( #110, #29, ( #84 ) ) ;
#162 = PRODUCT ( '392807', '392807', '', ( #121 ) ) ;
#163 = CIRCLE ( 'NONE', #82, 1.999999999999991340 ) ;
#164 = PERSON_AND_ORGANIZATION_ROLE ( 'classification_officer' ) ;
#165 = EDGE_LOOP ( 'NONE', ( #53 ) ) ;
#166 = ADVANCED_FACE ( 'NONE', ( #132, #218 ), #240, .T. ) ;
#167 = ORIENTED_EDGE ( 'NONE', *, *, #10, .T. ) ;
#168 = CARTESIAN_POINT ( 'NONE',  ( 0.4000000000000004663, 0.0000000000000000000, 0.09999999999999861777 ) ) ;
#169 = EDGE_LOOP ( 'NONE', ( #26 ) ) ;
#170 = VERTEX_POINT ( 'NONE', #251 ) ;
#171 = COORDINATED_UNIVERSAL_TIME_OFFSET ( 1, 0, .AHEAD. ) ;
#172 = ORIENTED_EDGE ( 'NONE', *, *, #65, .F. ) ;
#173 = CIRCLE ( 'NONE', #67, 0.4000000000000001332 ) ;
#174 = DATE_AND_TIME ( #14, #133 ) ;
#175 = DIRECTION ( 'NONE',  ( -3.491481338843133355E-15, 1.231412803562530918E-16, -1.000000000000000000 ) ) ;
#176 = FACE_OUTER_BOUND ( 'NONE', #125, .T. ) ;
#177 = AXIS2_PLACEMENT_3D ( 'NONE', #196, #135, #254 ) ;
#178 = CARTESIAN_POINT ( 'NONE',  ( 6.284666409917639251E-15, 0.0000000000000000000, 1.799999999999999822 ) ) ;
#179 = COORDINATED_UNIVERSAL_TIME_OFFSET ( 1, 0, .AHEAD. ) ;
#180 = ADVANCED_FACE ( 'NONE', ( #79 ), #145, .F. ) ;
#181 = DIRECTION ( 'NONE',  ( 1.000000000000000000, 0.0000000000000000000, -3.489775742687716214E-15 ) ) ;
#182 = COORDINATED_UNIVERSAL_TIME_OFFSET ( 1, 0, .AHEAD. ) ;
#183 = DIRECTION ( 'NONE',  ( 1.000000000000000000, 0.0000000000000000000, 0.0000000000000000000 ) ) ;
#184 = APPROVAL_PERSON_ORGANIZATION ( #262, #54, #102 ) ;
#185 =( LENGTH_UNIT ( ) NAMED_UNIT ( * ) SI_UNIT ( .MILLI., .METRE. ) );
#186 = ORIENTED_EDGE ( 'NONE', *, *, #61, .F. ) ;
#187 = AXIS2_PLACEMENT_3D ( 'NONE', #114, #131, #76 ) ;
#188 = CC_DESIGN_DATE_AND_TIME_ASSIGNMENT ( #261, #158, ( #233 ) ) ;
#189 = DIRECTION ( 'NONE',  ( -3.491481338843133355E-15, 1.231412803562530918E-16, -1.000000000000000000 ) ) ;
#190 = EDGE_LOOP ( 'NONE', ( #130 ) ) ;
#191 = CIRCLE ( 'NONE', #48, 1.599999999999991429 ) ;
#192 = PLANE ( 'NONE',  #198 ) ;
#193 = ORIENTED_EDGE ( 'NONE', *, *, #61, .T. ) ;
#194 = VERTEX_POINT ( 'NONE', #12 ) ;
#195 = APPROVAL_DATE_TIME ( #127, #140 ) ;
#196 = CARTESIAN_POINT ( 'NONE',  ( 6.284666409917643984E-15, 4.212784989066894776E-15, 1.800000000000000933 ) ) ;
#197 = TOROIDAL_SURFACE ( 'NONE', #25, 2.400000000000000355, 2.000000000000000000 ) ;
#198 = AXIS2_PLACEMENT_3D ( 'NONE', #85, #143, #229 ) ;
#199 = CARTESIAN_POINT ( 'NONE',  ( 6.284666409917640828E-15, 0.0000000000000000000, 1.800000000000000266 ) ) ;
#200 = FACE_OUTER_BOUND ( 'NONE', #147, .T. ) ;
#201 = ADVANCED_FACE ( 'NONE', ( #249, #244 ), #4, .T. ) ;
#202 = CARTESIAN_POINT ( 'NONE',  ( 1.312796983405018394E-13, -1.956728476869669001E-16, 37.60000000000000853 ) ) ;
#203 = LOCAL_TIME ( 13, 42, 13.00000000000000000, #179 ) ;
#204 = FACE_OUTER_BOUND ( 'NONE', #210, .T. ) ;
#205 =( NAMED_UNIT ( * ) SI_UNIT ( $, .STERADIAN. ) SOLID_ANGLE_UNIT ( ) );
#206 = VERTEX_POINT ( 'NONE', #24 ) ;
#207 = APPROVAL_STATUS ( 'not_yet_approved' ) ;
#208 = AXIS2_PLACEMENT_3D ( 'NONE', #260, #239, #17 ) ;
#209 = DATE_AND_TIME ( #245, #128 ) ;
#210 = EDGE_LOOP ( 'NONE', ( #167 ) ) ;
#211 = CARTESIAN_POINT ( 'NONE',  ( 1.326762908760390423E-13, -2.449293598294670423E-16, 38.00000000000000000 ) ) ;
#212 = PERSON ( 'UNSPECIFIED', 'UNSPECIFIED', 'UNSPECIFIED', ('UNSPECIFIED'), ('UNSPECIFIED'), ('UNSPECIFIED') ) ;
#213 = ORIENTED_EDGE ( 'NONE', *, *, #10, .F. ) ;
#214 = CC_DESIGN_APPROVAL ( #32, ( #60 ) ) ;
#215 = EDGE_LOOP ( 'NONE', ( #172 ) ) ;
#216 = DIRECTION ( 'NONE',  ( 0.0000000000000000000, -1.000000000000000000, 0.0000000000000000000 ) ) ;
#217 = CIRCLE ( 'NONE', #94, 0.4681483474218601781 ) ;
#218 = FACE_OUTER_BOUND ( 'NONE', #105, .T. ) ;
#219 = ADVANCED_FACE ( 'NONE', ( #106 ), #8, .F. ) ;
#220 = DIRECTION ( 'NONE',  ( -3.491481338843133355E-15, 0.0000000000000000000, -1.000000000000000000 ) ) ;
#221 = DIRECTION ( 'NONE',  ( 3.491481338843133355E-15, -1.231412803562530918E-16, 1.000000000000000000 ) ) ;
#222 = CARTESIAN_POINT ( 'NONE',  ( 0.3000000000000000444, 0.0000000000000000000, -1.128759564589352839E-15 ) ) ;
#223 = APPROVAL_STATUS ( 'not_yet_approved' ) ;
#224 = DIRECTION ( 'NONE',  ( 0.0000000000000000000, 0.0000000000000000000, 1.000000000000000000 ) ) ;
#225 = AXIS2_PLACEMENT_3D ( 'NONE', #237, #118, #95 ) ;
#226 = CC_DESIGN_PERSON_AND_ORGANIZATION_ASSIGNMENT ( #13, #148, ( #84 ) ) ;
#227 = EDGE_LOOP ( 'NONE', ( #90 ) ) ;
#228 =( GEOMETRIC_REPRESENTATION_CONTEXT ( 3 ) GLOBAL_UNCERTAINTY_ASSIGNED_CONTEXT ( ( #51 ) ) GLOBAL_UNIT_ASSIGNED_CONTEXT ( ( #185, #1, #205 ) ) REPRESENTATION_CONTEXT ( 'NONE', 'WORKASPACE' ) );
#229 = DIRECTION ( 'NONE',  ( 8.171588985491949222E-30, -1.000000000000000000, 2.340436105037159820E-15 ) ) ;
#230 = CC_DESIGN_SECURITY_CLASSIFICATION ( #60, ( #84 ) ) ;
#231 = SHAPE_DEFINITION_REPRESENTATION ( #59, #248 ) ;
#232 = DIRECTION ( 'NONE',  ( 3.491481338843133355E-15, -0.0000000000000000000, 1.000000000000000000 ) ) ;
#233 = PRODUCT_DEFINITION ( 'UNKNOWN', '', #84, #150 ) ;
#234 = DIRECTION ( 'NONE',  ( 3.491481338843133355E-15, -0.0000000000000000000, 1.000000000000000000 ) ) ;
#235 = AXIS2_PLACEMENT_3D ( 'NONE', #154, #57, #236 ) ;
#236 = DIRECTION ( 'NONE',  ( 1.000000000000000000, 0.0000000000000000000, -3.491481338843132961E-15 ) ) ;
#237 = CARTESIAN_POINT ( 'NONE',  ( -2.839103739574742144E-31, 0.0000000000000000000, -8.131516293641283255E-17 ) ) ;
#238 = VERTEX_POINT ( 'NONE', #159 ) ;
#239 = DIRECTION ( 'NONE',  ( 3.491481338843133355E-15, -0.0000000000000000000, 1.000000000000000000 ) ) ;
#240 = TOROIDAL_SURFACE ( 'NONE', #235, 0.3000000000000000444, 0.1000000000000001027 ) ;
#241 = PERSON_AND_ORGANIZATION ( #212, #87 ) ;
#242 = ADVANCED_FACE ( 'NONE', ( #47 ), #192, .F. ) ;
#243 = MANIFOLD_SOLID_BREP ( 'Corps-Déplacer/Copier1[1]', #30 ) ;
#244 = FACE_OUTER_BOUND ( 'NONE', #246, .T. ) ;
#245 = CALENDAR_DATE ( 2021, 9, 12 ) ;
#246 = EDGE_LOOP ( 'NONE', ( #3 ) ) ;
#247 = APPROVAL_PERSON_ORGANIZATION ( #129, #32, #252 ) ;
#248 = ADVANCED_BREP_SHAPE_REPRESENTATION ( '392807', ( #243, #152, #144 ), #228 ) ;
#249 = FACE_OUTER_BOUND ( 'NONE', #11, .T. ) ;
#250 = ORIENTED_EDGE ( 'NONE', *, *, #109, .T. ) ;
#251 = CARTESIAN_POINT ( 'NONE',  ( 1.326762908760390423E-13, -1.599999999999991651, 38.00000000000000000 ) ) ;
#252 = APPROVAL_ROLE ( '' ) ;
#253 = EDGE_LOOP ( 'NONE', ( #250 ) ) ;
#254 = DIRECTION ( 'NONE',  ( -4.299454824051081656E-31, -1.000000000000000000, -1.231412803562530918E-16 ) ) ;
#255 = CARTESIAN_POINT ( 'NONE',  ( 1.326762908760390423E-13, -2.449293598294669930E-16, 38.00000000000000000 ) ) ;
#256 = DIRECTION ( 'NONE',  ( 1.000000000000000000, 0.0000000000000000000, -3.273063162220392396E-15 ) ) ;
#257 = CLOSED_SHELL ( 'NONE', ( #242, #166, #146, #219 ) ) ;
#258 = FACE_BOUND ( 'NONE', #73, .T. ) ;
#259 = APPLICATION_CONTEXT ( 'configuration controlled 3d designs of mechanical parts and assemblies' ) ;
#260 = CARTESIAN_POINT ( 'NONE',  ( 0.0000000000000000000, 0.0000000000000000000, 0.0000000000000000000 ) ) ;
#261 = DATE_AND_TIME ( #120, #19 ) ;
#262 = PERSON_AND_ORGANIZATION ( #212, #87 ) ;
#263 = CONICAL_SURFACE ( 'NONE', #113, 1.999999999999991340, 0.7853981633974599363 ) ;
ENDSEC;
END-ISO-10303-21;
