ISO-10303-21;
HEADER;
FILE_DESCRIPTION (( 'STEP AP203' ),
    '1' );
FILE_NAME ('392806.step',
    '2021-12-09T12:42:12',
    ( '' ),
    ( '' ),
    'SwSTEP 2.0',
    'SolidWorks 2019',
    '' );
FILE_SCHEMA (( 'CONFIG_CONTROL_DESIGN' ));
ENDSEC;

DATA;
#1 = CIRCLE ( 'NONE', #119, 0.3499999999999999778 ) ;
#2 = ORIENTED_EDGE ( 'NONE', *, *, #189, .F. ) ;
#3 = CC_DESIGN_APPROVAL ( #124, ( #173 ) ) ;
#4 = DIRECTION ( 'NONE',  ( 3.491481338843133355E-15, -0.0000000000000000000, 1.000000000000000000 ) ) ;
#5 = DIRECTION ( 'NONE',  ( 3.491481338843133355E-15, -0.0000000000000000000, 1.000000000000000000 ) ) ;
#6 = CARTESIAN_POINT ( 'NONE',  ( 8.091990142142897998E-15, 0.0000000000000000000, 2.317638090205029311 ) ) ;
#7 = DIRECTION ( 'NONE',  ( 1.000000000000000000, 0.0000000000000000000, -3.491481338843133750E-15 ) ) ;
#8 = FACE_OUTER_BOUND ( 'NONE', #229, .T. ) ;
#9 = CIRCLE ( 'NONE', #108, 0.4681483474218601781 ) ;
#10 = DIRECTION ( 'NONE',  ( 1.000000000000000000, 0.0000000000000000000, -3.491481338843133750E-15 ) ) ;
#11 = FACE_OUTER_BOUND ( 'NONE', #244, .T. ) ;
#12 = ORIENTED_EDGE ( 'NONE', *, *, #106, .T. ) ;
#13 = VERTEX_POINT ( 'NONE', #214 ) ;
#14 = LOCAL_TIME ( 13, 42, 12.00000000000000000, #39 ) ;
#15 = ADVANCED_FACE ( 'NONE', ( #233, #130 ), #150, .T. ) ;
#16 = PERSON_AND_ORGANIZATION_ROLE ( 'classification_officer' ) ;
#17 = ORIENTED_EDGE ( 'NONE', *, *, #139, .F. ) ;
#18 = CONICAL_SURFACE ( 'NONE', #208, 5.349999999999997868, 0.2617993877991426355 ) ;
#19 = APPLICATION_CONTEXT ( 'configuration controlled 3d designs of mechanical parts and assemblies' ) ;
#20 = EDGE_LOOP ( 'NONE', ( #135 ) ) ;
#21 = EDGE_LOOP ( 'NONE', ( #85 ) ) ;
#22 = CARTESIAN_POINT ( 'NONE',  ( 0.0000000000000000000, 0.0000000000000000000, 0.0000000000000000000 ) ) ;
#23 = VERTEX_POINT ( 'NONE', #179 ) ;
#24 = DIRECTION ( 'NONE',  ( 8.171588985491949222E-30, -1.000000000000000000, 2.340436105037159820E-15 ) ) ;
#25 = FACE_OUTER_BOUND ( 'NONE', #219, .T. ) ;
#26 = DIRECTION ( 'NONE',  ( 1.000000000000000000, 0.0000000000000000000, -3.491481338843133355E-15 ) ) ;
#27 = DIRECTION ( 'NONE',  ( 3.491481338843133355E-15, -1.231412803562530918E-16, 1.000000000000000000 ) ) ;
#28 = FACE_OUTER_BOUND ( 'NONE', #104, .T. ) ;
#29 = DIRECTION ( 'NONE',  ( 3.491481338843133355E-15, -1.231412803562530918E-16, 1.000000000000000000 ) ) ;
#30 = CC_DESIGN_PERSON_AND_ORGANIZATION_ASSIGNMENT ( #35, #77, ( #173 ) ) ;
#31 = AXIS2_PLACEMENT_3D ( 'NONE', #250, #156, #234 ) ;
#32 = DIRECTION ( 'NONE',  ( 0.0000000000000000000, -1.000000000000000000, 0.0000000000000000000 ) ) ;
#33 = APPLICATION_CONTEXT ( 'configuration controlled 3d designs of mechanical parts and assemblies' ) ;
#34 = COORDINATED_UNIVERSAL_TIME_OFFSET ( 1, 0, .AHEAD. ) ;
#35 = PERSON_AND_ORGANIZATION ( #212, #83 ) ;
#36 = ADVANCED_FACE ( 'NONE', ( #28, #8 ), #93, .T. ) ;
#37 = SECURITY_CLASSIFICATION_LEVEL ( 'unclassified' ) ;
#38 = CONICAL_SURFACE ( 'NONE', #246, 1.999999999999991340, 0.7853981633974599363 ) ;
#39 = COORDINATED_UNIVERSAL_TIME_OFFSET ( 1, 0, .AHEAD. ) ;
#40 = EDGE_LOOP ( 'NONE', ( #12 ) ) ;
#41 = AXIS2_PLACEMENT_3D ( 'NONE', #116, #221, #132 ) ;
#42 = CC_DESIGN_PERSON_AND_ORGANIZATION_ASSIGNMENT ( #125, #144, ( #235 ) ) ;
#43 = ORIENTED_EDGE ( 'NONE', *, *, #142, .T. ) ;
#44 = FACE_OUTER_BOUND ( 'NONE', #243, .T. ) ;
#45 = EDGE_LOOP ( 'NONE', ( #149 ) ) ;
#46 = COORDINATED_UNIVERSAL_TIME_OFFSET ( 1, 0, .AHEAD. ) ;
#47 = FACE_OUTER_BOUND ( 'NONE', #21, .T. ) ;
#48 = DIRECTION ( 'NONE',  ( 0.0000000000000000000, -1.000000000000000000, 0.0000000000000000000 ) ) ;
#49 = DIRECTION ( 'NONE',  ( 1.000000000000000000, 0.0000000000000000000, -3.491481338843132961E-15 ) ) ;
#50 = SECURITY_CLASSIFICATION ( '', '', #37 ) ;
#51 = CARTESIAN_POINT ( 'NONE',  ( 0.0000000000000000000, 0.0000000000000000000, 0.0000000000000000000 ) ) ;
#52 = CARTESIAN_POINT ( 'NONE',  ( 6.284666409917643984E-15, 4.212784989066894776E-15, 1.800000000000000933 ) ) ;
#53 =( LENGTH_UNIT ( ) NAMED_UNIT ( * ) SI_UNIT ( .MILLI., .METRE. ) );
#54 = AXIS2_PLACEMENT_3D ( 'NONE', #154, #222, #49 ) ;
#55 = CALENDAR_DATE ( 2021, 9, 12 ) ;
#56 = CC_DESIGN_SECURITY_CLASSIFICATION ( #50, ( #235 ) ) ;
#57 = ADVANCED_FACE ( 'NONE', ( #195, #74 ), #72, .T. ) ;
#58 = DATE_AND_TIME ( #163, #127 ) ;
#59 = APPROVAL_DATE_TIME ( #182, #63 ) ;
#60 = TOROIDAL_SURFACE ( 'NONE', #88, 2.400000000000000355, 2.000000000000000000 ) ;
#61 = AXIS2_PLACEMENT_3D ( 'NONE', #201, #94, #76 ) ;
#62 = APPROVAL_PERSON_ORGANIZATION ( #103, #258, #101 ) ;
#63 = APPROVAL ( #257, 'UNSPECIFIED' ) ;
#64 = EDGE_CURVE ( 'NONE', #218, #218, #9, .T. ) ;
#65 = PERSON_AND_ORGANIZATION ( #212, #83 ) ;
#66 = APPROVAL_STATUS ( 'not_yet_approved' ) ;
#67 = AXIS2_PLACEMENT_3D ( 'NONE', #136, #29, #32 ) ;
#68 = ORIENTED_EDGE ( 'NONE', *, *, #139, .T. ) ;
#69 = CC_DESIGN_DATE_AND_TIME_ASSIGNMENT ( #263, #259, ( #50 ) ) ;
#70 = CARTESIAN_POINT ( 'NONE',  ( -2.602511761276847002E-31, 0.0000000000000000000, -7.453889935837842984E-17 ) ) ;
#71 = DIRECTION ( 'NONE',  ( 0.0000000000000000000, -1.000000000000000000, 0.0000000000000000000 ) ) ;
#72 = CYLINDRICAL_SURFACE ( 'NONE', #205, 0.4000000000000001332 ) ;
#73 = ADVANCED_FACE ( 'NONE', ( #25 ), #200, .F. ) ;
#74 = FACE_OUTER_BOUND ( 'NONE', #193, .T. ) ;
#75 = CARTESIAN_POINT ( 'NONE',  ( 7.170440035069016306E-14, 0.0000000000000000000, 20.53695649264122025 ) ) ;
#76 = DIRECTION ( 'NONE',  ( 1.000000000000000000, 0.0000000000000000000, -3.252606517456511724E-15 ) ) ;
#77 = PERSON_AND_ORGANIZATION_ROLE ( 'creator' ) ;
#78 = CIRCLE ( 'NONE', #143, 0.4000000000000000777 ) ;
#79 = EDGE_CURVE ( 'NONE', #238, #238, #82, .T. ) ;
#80 = COORDINATED_UNIVERSAL_TIME_OFFSET ( 1, 0, .AHEAD. ) ;
#81 = ADVANCED_FACE ( 'NONE', ( #237 ), #86, .F. ) ;
#82 = CIRCLE ( 'NONE', #122, 1.599999999999991429 ) ;
#83 = ORGANIZATION ( 'UNSPECIFIED', 'UNSPECIFIED', '' ) ;
#84 = ORIENTED_EDGE ( 'NONE', *, *, #225, .F. ) ;
#85 = ORIENTED_EDGE ( 'NONE', *, *, #79, .T. ) ;
#86 = PLANE ( 'NONE',  #202 ) ;
#87 = VERTEX_POINT ( 'NONE', #159 ) ;
#88 = AXIS2_PLACEMENT_3D ( 'NONE', #196, #4, #7 ) ;
#89 = ORIENTED_EDGE ( 'NONE', *, *, #79, .F. ) ;
#90 = MANIFOLD_SOLID_BREP ( 'Corps-Déplacer/Copier1[1]', #138 ) ;
#91 = CARTESIAN_POINT ( 'NONE',  ( -8.171588985491915591E-30, 1.999999999999991340, -2.340436105037149565E-15 ) ) ;
#92 = CC_DESIGN_DATE_AND_TIME_ASSIGNMENT ( #121, #123, ( #173 ) ) ;
#93 = CYLINDRICAL_SURFACE ( 'NONE', #99, 1.999999999999991340 ) ;
#94 = DIRECTION ( 'NONE',  ( 3.491481338843133355E-15, -0.0000000000000000000, 1.000000000000000000 ) ) ;
#95 = CARTESIAN_POINT ( 'NONE',  ( 0.3499999999999999778, 0.0000000000000000000, -1.296557367953475104E-15 ) ) ;
#96 = PERSON_AND_ORGANIZATION ( #212, #83 ) ;
#97 = EDGE_CURVE ( 'NONE', #23, #23, #162, .T. ) ;
#98 = MANIFOLD_SOLID_BREP ( 'Corps-Déplacer/Copier1[2]', #213 ) ;
#99 = AXIS2_PLACEMENT_3D ( 'NONE', #245, #177, #71 ) ;
#100 = CC_DESIGN_APPROVAL ( #63, ( #235 ) ) ;
#101 = APPROVAL_ROLE ( '' ) ;
#102 = EDGE_LOOP ( 'NONE', ( #43 ) ) ;
#103 = PERSON_AND_ORGANIZATION ( #212, #83 ) ;
#104 = EDGE_LOOP ( 'NONE', ( #2 ) ) ;
#105 = UNCERTAINTY_MEASURE_WITH_UNIT (LENGTH_MEASURE( 1.000000000000000082E-05 ), #53, 'distance_accuracy_value', 'NONE');
#106 = EDGE_CURVE ( 'NONE', #153, #153, #78, .T. ) ;
#107 = ADVANCED_BREP_SHAPE_REPRESENTATION ( '392806', ( #90, #98, #242 ), #239 ) ;
#108 = AXIS2_PLACEMENT_3D ( 'NONE', #6, #113, #117 ) ;
#109 = DIRECTION ( 'NONE',  ( 0.0000000000000000000, 0.0000000000000000000, 1.000000000000000000 ) ) ;
#110 = DIRECTION ( 'NONE',  ( 3.491481338843133355E-15, -0.0000000000000000000, 1.000000000000000000 ) ) ;
#111 = CARTESIAN_POINT ( 'NONE',  ( 1.326762908760390423E-13, -1.599999999999991651, 38.00000000000000000 ) ) ;
#112 = EDGE_LOOP ( 'NONE', ( #68 ) ) ;
#113 = DIRECTION ( 'NONE',  ( 3.491481338843133355E-15, -0.0000000000000000000, 1.000000000000000000 ) ) ;
#114 = ADVANCED_FACE ( 'NONE', ( #47 ), #217, .F. ) ;
#115 = PRODUCT ( '392806', '392806', '', ( #128 ) ) ;
#116 = CARTESIAN_POINT ( 'NONE',  ( 2.805260808738092503E-14, 0.0000000000000000000, 8.034586287285117479 ) ) ;
#117 = DIRECTION ( 'NONE',  ( 1.000000000000000000, 0.0000000000000000000, -3.705499518539588955E-15 ) ) ;
#118 = DIRECTION ( 'NONE',  ( -4.299454824051081656E-31, -1.000000000000000000, -1.231412803562530918E-16 ) ) ;
#119 = AXIS2_PLACEMENT_3D ( 'NONE', #70, #133, #10 ) ;
#120 = DIRECTION ( 'NONE',  ( 1.000000000000000000, 0.0000000000000000000, -3.242473786872537786E-15 ) ) ;
#121 = DATE_AND_TIME ( #241, #185 ) ;
#122 = AXIS2_PLACEMENT_3D ( 'NONE', #152, #27, #48 ) ;
#123 = DATE_TIME_ROLE ( 'creation_date' ) ;
#124 = APPROVAL ( #66, 'UNSPECIFIED' ) ;
#125 = PERSON_AND_ORGANIZATION ( #212, #83 ) ;
#126 = EDGE_LOOP ( 'NONE', ( #89 ) ) ;
#127 = LOCAL_TIME ( 13, 42, 12.00000000000000000, #80 ) ;
#128 = MECHANICAL_CONTEXT ( 'NONE', #19, 'mechanical' ) ;
#129 = PRODUCT_RELATED_PRODUCT_CATEGORY ( 'detail', '', ( #115 ) ) ;
#130 = FACE_OUTER_BOUND ( 'NONE', #184, .T. ) ;
#131 = CALENDAR_DATE ( 2021, 9, 12 ) ;
#132 = DIRECTION ( 'NONE',  ( 1.000000000000000000, 0.0000000000000000000, -3.469446951953629177E-15 ) ) ;
#133 = DIRECTION ( 'NONE',  ( 3.491481338843133355E-15, -0.0000000000000000000, 1.000000000000000000 ) ) ;
#134 = FACE_BOUND ( 'NONE', #126, .T. ) ;
#135 = ORIENTED_EDGE ( 'NONE', *, *, #142, .F. ) ;
#136 = CARTESIAN_POINT ( 'NONE',  ( 1.312796983405018394E-13, -1.956728476869669001E-16, 37.60000000000000853 ) ) ;
#137 =( NAMED_UNIT ( * ) SI_UNIT ( $, .STERADIAN. ) SOLID_ANGLE_UNIT ( ) );
#138 = CLOSED_SHELL ( 'NONE', ( #36, #155, #114, #210, #251, #187 ) ) ;
#139 = EDGE_CURVE ( 'NONE', #232, #232, #1, .T. ) ;
#140 = CC_DESIGN_APPROVAL ( #258, ( #50 ) ) ;
#141 = PERSON_AND_ORGANIZATION ( #212, #83 ) ;
#142 = EDGE_CURVE ( 'NONE', #13, #13, #170, .T. ) ;
#143 = AXIS2_PLACEMENT_3D ( 'NONE', #198, #169, #231 ) ;
#144 = PERSON_AND_ORGANIZATION_ROLE ( 'creator' ) ;
#145 = COORDINATED_UNIVERSAL_TIME_OFFSET ( 1, 0, .AHEAD. ) ;
#146 = ORIENTED_EDGE ( 'NONE', *, *, #97, .F. ) ;
#147 = CC_DESIGN_PERSON_AND_ORGANIZATION_ASSIGNMENT ( #65, #148, ( #115 ) ) ;
#148 = PERSON_AND_ORGANIZATION_ROLE ( 'design_owner' ) ;
#149 = ORIENTED_EDGE ( 'NONE', *, *, #64, .T. ) ;
#150 = TOROIDAL_SURFACE ( 'NONE', #54, 0.3499999999999999778, 0.05000000000000008604 ) ;
#151 = APPROVAL_ROLE ( '' ) ;
#152 = CARTESIAN_POINT ( 'NONE',  ( 1.326762908760390423E-13, -2.449293598294669930E-16, 38.00000000000000000 ) ) ;
#153 = VERTEX_POINT ( 'NONE', #255 ) ;
#154 = CARTESIAN_POINT ( 'NONE',  ( 1.745740669421567171E-16, 0.0000000000000000000, 0.05000000000000001665 ) ) ;
#155 = ADVANCED_FACE ( 'NONE', ( #134, #11 ), #38, .T. ) ;
#156 = DIRECTION ( 'NONE',  ( 3.491481338843133355E-15, -0.0000000000000000000, 1.000000000000000000 ) ) ;
#157 = DIRECTION ( 'NONE',  ( 0.0000000000000000000, 1.000000000000000000, 0.0000000000000000000 ) ) ;
#158 = DIRECTION ( 'NONE',  ( -3.491481338843133355E-15, -2.340436105037159820E-15, -1.000000000000000000 ) ) ;
#159 = CARTESIAN_POINT ( 'NONE',  ( 0.4000000000000064615, 0.0000000000000000000, 1.799999999999998934 ) ) ;
#160 = CC_DESIGN_PERSON_AND_ORGANIZATION_ASSIGNMENT ( #181, #186, ( #235 ) ) ;
#161 = FACE_OUTER_BOUND ( 'NONE', #102, .T. ) ;
#162 = CIRCLE ( 'NONE', #41, 1.999999999999991340 ) ;
#163 = CALENDAR_DATE ( 2021, 9, 12 ) ;
#164 = CALENDAR_DATE ( 2021, 9, 12 ) ;
#165 = EDGE_LOOP ( 'NONE', ( #17 ) ) ;
#166 = EDGE_LOOP ( 'NONE', ( #211 ) ) ;
#167 = CARTESIAN_POINT ( 'NONE',  ( 0.4681483474218682828, 0.0000000000000000000, 2.317638090205027535 ) ) ;
#168 = PERSON_AND_ORGANIZATION ( #212, #83 ) ;
#169 = DIRECTION ( 'NONE',  ( 3.491481338843133355E-15, -0.0000000000000000000, 1.000000000000000000 ) ) ;
#170 = CIRCLE ( 'NONE', #31, 0.4000000000000001887 ) ;
#171 =( NAMED_UNIT ( * ) PLANE_ANGLE_UNIT ( ) SI_UNIT ( $, .RADIAN. ) );
#172 = CARTESIAN_POINT ( 'NONE',  ( 1.326762908760390423E-13, -2.449293598294670423E-16, 38.00000000000000000 ) ) ;
#173 = PRODUCT_DEFINITION ( 'UNKNOWN', '', #235, #188 ) ;
#174 = DIRECTION ( 'NONE',  ( -8.171588985491949222E-30, 1.000000000000000000, -2.340436105037159820E-15 ) ) ;
#175 = CARTESIAN_POINT ( 'NONE',  ( 1.312796983405018394E-13, -1.956728476869669001E-16, 37.60000000000000853 ) ) ;
#176 = CIRCLE ( 'NONE', #61, 0.4000000000000001887 ) ;
#177 = DIRECTION ( 'NONE',  ( 3.491481338843133355E-15, -1.231412803562530918E-16, 1.000000000000000000 ) ) ;
#178 = CC_DESIGN_PERSON_AND_ORGANIZATION_ASSIGNMENT ( #141, #16, ( #50 ) ) ;
#179 = CARTESIAN_POINT ( 'NONE',  ( 2.000000000000019540, 0.0000000000000000000, 8.034586287285110373 ) ) ;
#180 = APPLICATION_PROTOCOL_DEFINITION ( 'international standard', 'config_control_design', 1994, #19 ) ;
#181 = PERSON_AND_ORGANIZATION ( #212, #83 ) ;
#182 = DATE_AND_TIME ( #164, #14 ) ;
#183 = CIRCLE ( 'NONE', #67, 1.999999999999991784 ) ;
#184 = EDGE_LOOP ( 'NONE', ( #209 ) ) ;
#185 = LOCAL_TIME ( 13, 42, 12.00000000000000000, #145 ) ;
#186 = PERSON_AND_ORGANIZATION_ROLE ( 'design_supplier' ) ;
#187 = ADVANCED_FACE ( 'NONE', ( #236 ), #203, .F. ) ;
#188 = DESIGN_CONTEXT ( 'detailed design', #33, 'design' ) ;
#189 = EDGE_CURVE ( 'NONE', #256, #256, #183, .T. ) ;
#190 = ORIENTED_EDGE ( 'NONE', *, *, #64, .F. ) ;
#191 = APPROVAL_PERSON_ORGANIZATION ( #168, #124, #151 ) ;
#192 = DIRECTION ( 'NONE',  ( 1.000000000000000000, 0.0000000000000000000, 0.0000000000000000000 ) ) ;
#193 = EDGE_LOOP ( 'NONE', ( #84 ) ) ;
#194 = FACE_BOUND ( 'NONE', #45, .T. ) ;
#195 = FACE_OUTER_BOUND ( 'NONE', #40, .T. ) ;
#196 = CARTESIAN_POINT ( 'NONE',  ( 6.284666409917639251E-15, 0.0000000000000000000, 1.799999999999999822 ) ) ;
#197 = AXIS2_PLACEMENT_3D ( 'NONE', #172, #199, #248 ) ;
#198 = CARTESIAN_POINT ( 'NONE',  ( 1.745740669421567171E-16, 0.0000000000000000000, 0.05000000000000001665 ) ) ;
#199 = DIRECTION ( 'NONE',  ( -3.491481338843133355E-15, 1.231412803562530918E-16, -1.000000000000000000 ) ) ;
#200 = PLANE ( 'NONE',  #253 ) ;
#201 = CARTESIAN_POINT ( 'NONE',  ( 6.284666409917640828E-15, 0.0000000000000000000, 1.800000000000000266 ) ) ;
#202 = AXIS2_PLACEMENT_3D ( 'NONE', #91, #215, #24 ) ;
#203 = PLANE ( 'NONE',  #261 ) ;
#204 = APPROVAL_DATE_TIME ( #58, #258 ) ;
#205 = AXIS2_PLACEMENT_3D ( 'NONE', #51, #110, #26 ) ;
#206 = LOCAL_TIME ( 13, 42, 12.00000000000000000, #34 ) ;
#207 = APPROVAL_ROLE ( '' ) ;
#208 = AXIS2_PLACEMENT_3D ( 'NONE', #75, #5, #120 ) ;
#209 = ORIENTED_EDGE ( 'NONE', *, *, #106, .F. ) ;
#210 = ADVANCED_FACE ( 'NONE', ( #194, #230 ), #18, .T. ) ;
#211 = ORIENTED_EDGE ( 'NONE', *, *, #97, .T. ) ;
#212 = PERSON ( 'UNSPECIFIED', 'UNSPECIFIED', 'UNSPECIFIED', ('UNSPECIFIED'), ('UNSPECIFIED'), ('UNSPECIFIED') ) ;
#213 = CLOSED_SHELL ( 'NONE', ( #81, #15, #57, #73 ) ) ;
#214 = CARTESIAN_POINT ( 'NONE',  ( 0.4000000000000064615, 0.0000000000000000000, 1.799999999999998934 ) ) ;
#215 = DIRECTION ( 'NONE',  ( 3.491481338843133355E-15, 2.340436105037159820E-15, 1.000000000000000000 ) ) ;
#216 = DATE_AND_TIME ( #131, #220 ) ;
#217 = PLANE ( 'NONE',  #197 ) ;
#218 = VERTEX_POINT ( 'NONE', #167 ) ;
#219 = EDGE_LOOP ( 'NONE', ( #262 ) ) ;
#220 = LOCAL_TIME ( 13, 42, 12.00000000000000000, #46 ) ;
#221 = DIRECTION ( 'NONE',  ( -3.491481338843133355E-15, 0.0000000000000000000, -1.000000000000000000 ) ) ;
#222 = DIRECTION ( 'NONE',  ( 3.491481338843133355E-15, -0.0000000000000000000, 1.000000000000000000 ) ) ;
#223 = DIRECTION ( 'NONE',  ( 3.491481338843133355E-15, -1.231412803562530918E-16, 1.000000000000000000 ) ) ;
#224 = SHAPE_DEFINITION_REPRESENTATION ( #249, #107 ) ;
#225 = EDGE_CURVE ( 'NONE', #87, #87, #176, .T. ) ;
#226 = APPROVAL_STATUS ( 'not_yet_approved' ) ;
#227 = ORIENTED_EDGE ( 'NONE', *, *, #189, .T. ) ;
#228 = APPLICATION_PROTOCOL_DEFINITION ( 'international standard', 'config_control_design', 1994, #33 ) ;
#229 = EDGE_LOOP ( 'NONE', ( #146 ) ) ;
#230 = FACE_OUTER_BOUND ( 'NONE', #166, .T. ) ;
#231 = DIRECTION ( 'NONE',  ( 1.000000000000000000, 0.0000000000000000000, -3.489775742687716608E-15 ) ) ;
#232 = VERTEX_POINT ( 'NONE', #95 ) ;
#233 = FACE_OUTER_BOUND ( 'NONE', #112, .T. ) ;
#234 = DIRECTION ( 'NONE',  ( 1.000000000000000000, 0.0000000000000000000, -3.252606517456511724E-15 ) ) ;
#235 = PRODUCT_DEFINITION_FORMATION_WITH_SPECIFIED_SOURCE ( 'ANY', '', #115, .NOT_KNOWN. ) ;
#236 = FACE_OUTER_BOUND ( 'NONE', #20, .T. ) ;
#237 = FACE_OUTER_BOUND ( 'NONE', #165, .T. ) ;
#238 = VERTEX_POINT ( 'NONE', #111 ) ;
#239 =( GEOMETRIC_REPRESENTATION_CONTEXT ( 3 ) GLOBAL_UNCERTAINTY_ASSIGNED_CONTEXT ( ( #105 ) ) GLOBAL_UNIT_ASSIGNED_CONTEXT ( ( #53, #171, #137 ) ) REPRESENTATION_CONTEXT ( 'NONE', 'WORKASPACE' ) );
#240 = APPROVAL_PERSON_ORGANIZATION ( #96, #63, #207 ) ;
#241 = CALENDAR_DATE ( 2021, 9, 12 ) ;
#242 = AXIS2_PLACEMENT_3D ( 'NONE', #22, #109, #192 ) ;
#243 = EDGE_LOOP ( 'NONE', ( #190 ) ) ;
#244 = EDGE_LOOP ( 'NONE', ( #227 ) ) ;
#245 = CARTESIAN_POINT ( 'NONE',  ( 1.326762908760390423E-13, -2.449293598294670423E-16, 38.00000000000000000 ) ) ;
#246 = AXIS2_PLACEMENT_3D ( 'NONE', #175, #252, #157 ) ;
#247 = CARTESIAN_POINT ( 'NONE',  ( 1.312796983405018394E-13, -1.999999999999991784, 37.60000000000000853 ) ) ;
#248 = DIRECTION ( 'NONE',  ( 4.299454824051081656E-31, 1.000000000000000000, 1.231412803562530918E-16 ) ) ;
#249 = PRODUCT_DEFINITION_SHAPE ( 'NONE', 'NONE',  #173 ) ;
#250 = CARTESIAN_POINT ( 'NONE',  ( 6.284666409917640828E-15, 0.0000000000000000000, 1.800000000000000266 ) ) ;
#251 = ADVANCED_FACE ( 'NONE', ( #161, #44 ), #60, .F. ) ;
#252 = DIRECTION ( 'NONE',  ( -3.491481338843133355E-15, 1.231412803562530918E-16, -1.000000000000000000 ) ) ;
#253 = AXIS2_PLACEMENT_3D ( 'NONE', #254, #158, #174 ) ;
#254 = CARTESIAN_POINT ( 'NONE',  ( 6.284666409917652661E-15, 4.212784989066896354E-15, 1.800000000000003597 ) ) ;
#255 = CARTESIAN_POINT ( 'NONE',  ( 0.4000000000000002442, 0.0000000000000000000, 0.04999999999999862194 ) ) ;
#256 = VERTEX_POINT ( 'NONE', #247 ) ;
#257 = APPROVAL_STATUS ( 'not_yet_approved' ) ;
#258 = APPROVAL ( #226, 'UNSPECIFIED' ) ;
#259 = DATE_TIME_ROLE ( 'classification_date' ) ;
#260 = APPROVAL_DATE_TIME ( #216, #124 ) ;
#261 = AXIS2_PLACEMENT_3D ( 'NONE', #52, #223, #118 ) ;
#262 = ORIENTED_EDGE ( 'NONE', *, *, #225, .T. ) ;
#263 = DATE_AND_TIME ( #55, #206 ) ;
ENDSEC;
END-ISO-10303-21;
