ISO-10303-21;
HEADER;
FILE_DESCRIPTION (( 'STEP AP203' ),
    '1' );
FILE_NAME ('392805.step',
    '2021-12-09T12:42:11',
    ( '' ),
    ( '' ),
    'SwSTEP 2.0',
    'SolidWorks 2019',
    '' );
FILE_SCHEMA (( 'CONFIG_CONTROL_DESIGN' ));
ENDSEC;

DATA;
#1 = DATE_TIME_ROLE ( 'classification_date' ) ;
#2 = PERSON_AND_ORGANIZATION_ROLE ( 'classification_officer' ) ;
#3 = ADVANCED_FACE ( 'NONE', ( #103, #48 ), #84, .T. ) ;
#4 = COORDINATED_UNIVERSAL_TIME_OFFSET ( 1, 0, .AHEAD. ) ;
#5 = CC_DESIGN_DATE_AND_TIME_ASSIGNMENT ( #153, #1, ( #170 ) ) ;
#6 = ORIENTED_EDGE ( 'NONE', *, *, #42, .F. ) ;
#7 = CC_DESIGN_PERSON_AND_ORGANIZATION_ASSIGNMENT ( #136, #46, ( #94 ) ) ;
#8 = ORIENTED_EDGE ( 'NONE', *, *, #78, .T. ) ;
#9 = ORGANIZATION ( 'UNSPECIFIED', 'UNSPECIFIED', '' ) ;
#10 = FACE_BOUND ( 'NONE', #100, .T. ) ;
#11 = DIRECTION ( 'NONE',  ( 1.000000000000000000, 0.0000000000000000000, -3.304235192336777090E-15 ) ) ;
#12 = FACE_OUTER_BOUND ( 'NONE', #219, .T. ) ;
#13 = CIRCLE ( 'NONE', #127, 0.3500000000000000333 ) ;
#14 = PLANE ( 'NONE',  #62 ) ;
#15 =( NAMED_UNIT ( * ) SI_UNIT ( $, .STERADIAN. ) SOLID_ANGLE_UNIT ( ) );
#16 = FACE_OUTER_BOUND ( 'NONE', #247, .T. ) ;
#17 = VERTEX_POINT ( 'NONE', #92 ) ;
#18 = AXIS2_PLACEMENT_3D ( 'NONE', #49, #250, #191 ) ;
#19 = VERTEX_POINT ( 'NONE', #147 ) ;
#20 = CALENDAR_DATE ( 2021, 9, 12 ) ;
#21 = PERSON_AND_ORGANIZATION_ROLE ( 'design_supplier' ) ;
#22 = AXIS2_PLACEMENT_3D ( 'NONE', #88, #141, #230 ) ;
#23 = AXIS2_PLACEMENT_3D ( 'NONE', #101, #145, #159 ) ;
#24 = SHAPE_DEFINITION_REPRESENTATION ( #60, #190 ) ;
#25 = ORIENTED_EDGE ( 'NONE', *, *, #51, .T. ) ;
#26 = DIRECTION ( 'NONE',  ( 3.491481338843133355E-15, -0.0000000000000000000, 1.000000000000000000 ) ) ;
#27 = PRODUCT_DEFINITION_FORMATION_WITH_SPECIFIED_SOURCE ( 'ANY', '', #149, .NOT_KNOWN. ) ;
#28 = EDGE_LOOP ( 'NONE', ( #25 ) ) ;
#29 = DIRECTION ( 'NONE',  ( 1.000000000000000000, 0.0000000000000000000, -3.111437878457077522E-15 ) ) ;
#30 = DIRECTION ( 'NONE',  ( 3.491481338843133355E-15, -0.0000000000000000000, 1.000000000000000000 ) ) ;
#31 = LOCAL_TIME ( 13, 42, 11.00000000000000000, #220 ) ;
#32 = EDGE_LOOP ( 'NONE', ( #45 ) ) ;
#33 = ADVANCED_FACE ( 'NONE', ( #10, #205 ), #255, .T. ) ;
#34 = CARTESIAN_POINT ( 'NONE',  ( 1.326762908760390423E-13, -2.449293598294669930E-16, 38.00000000000000000 ) ) ;
#35 = CARTESIAN_POINT ( 'NONE',  ( 5.586370142149014157E-15, 0.0000000000000000000, 1.600000000000000311 ) ) ;
#36 = DIRECTION ( 'NONE',  ( 3.491481338843133355E-15, -0.0000000000000000000, 1.000000000000000000 ) ) ;
#37 = CC_DESIGN_APPROVAL ( #83, ( #27 ) ) ;
#38 = FACE_OUTER_BOUND ( 'NONE', #204, .T. ) ;
#39 = CC_DESIGN_PERSON_AND_ORGANIZATION_ASSIGNMENT ( #202, #180, ( #27 ) ) ;
#40 = PERSON_AND_ORGANIZATION ( #54, #9 ) ;
#41 = AXIS2_PLACEMENT_3D ( 'NONE', #34, #93, #237 ) ;
#42 = EDGE_CURVE ( 'NONE', #171, #171, #186, .T. ) ;
#43 = APPROVAL ( #81, 'UNSPECIFIED' ) ;
#44 = APPROVAL_DATE_TIME ( #95, #43 ) ;
#45 = ORIENTED_EDGE ( 'NONE', *, *, #51, .F. ) ;
#46 = PERSON_AND_ORGANIZATION_ROLE ( 'creator' ) ;
#47 = EDGE_LOOP ( 'NONE', ( #120 ) ) ;
#48 = FACE_OUTER_BOUND ( 'NONE', #32, .T. ) ;
#49 = CARTESIAN_POINT ( 'NONE',  ( 2.800583110712436844E-14, 0.0000000000000000000, 8.021188827663566556 ) ) ;
#50 = AXIS2_PLACEMENT_3D ( 'NONE', #35, #131, #132 ) ;
#51 = EDGE_CURVE ( 'NONE', #260, #260, #163, .T. ) ;
#52 = EDGE_LOOP ( 'NONE', ( #134 ) ) ;
#53 = FACE_OUTER_BOUND ( 'NONE', #158, .T. ) ;
#54 = PERSON ( 'UNSPECIFIED', 'UNSPECIFIED', 'UNSPECIFIED', ('UNSPECIFIED'), ('UNSPECIFIED'), ('UNSPECIFIED') ) ;
#55 = DIRECTION ( 'NONE',  ( 0.0000000000000000000, -1.000000000000000000, 0.0000000000000000000 ) ) ;
#56 = AXIS2_PLACEMENT_3D ( 'NONE', #211, #57, #59 ) ;
#57 = DIRECTION ( 'NONE',  ( -3.491481338843133355E-15, -2.663606788145498150E-15, -1.000000000000000000 ) ) ;
#58 =( NAMED_UNIT ( * ) PLANE_ANGLE_UNIT ( ) SI_UNIT ( $, .RADIAN. ) );
#59 = DIRECTION ( 'NONE',  ( -9.299933394825902529E-30, 1.000000000000000000, -2.663606788145498150E-15 ) ) ;
#60 = PRODUCT_DEFINITION_SHAPE ( 'NONE', 'NONE',  #94 ) ;
#61 = CARTESIAN_POINT ( 'NONE',  ( 3.491481338843133848E-16, 0.0000000000000000000, 0.1000000000000000194 ) ) ;
#62 = AXIS2_PLACEMENT_3D ( 'NONE', #87, #160, #253 ) ;
#63 = PLANE ( 'NONE',  #56 ) ;
#64 = EDGE_LOOP ( 'NONE', ( #157 ) ) ;
#65 = PERSON_AND_ORGANIZATION ( #54, #9 ) ;
#66 = COORDINATED_UNIVERSAL_TIME_OFFSET ( 1, 0, .AHEAD. ) ;
#67 = DATE_AND_TIME ( #137, #135 ) ;
#68 = APPROVAL_PERSON_ORGANIZATION ( #133, #83, #248 ) ;
#69 = FACE_OUTER_BOUND ( 'NONE', #184, .T. ) ;
#70 = PLANE ( 'NONE',  #22 ) ;
#71 = FACE_OUTER_BOUND ( 'NONE', #64, .T. ) ;
#72 = APPROVAL_PERSON_ORGANIZATION ( #246, #43, #197 ) ;
#73 = DIRECTION ( 'NONE',  ( 3.491481338843133355E-15, -1.238104456280839559E-16, 1.000000000000000000 ) ) ;
#74 = ORIENTED_EDGE ( 'NONE', *, *, #42, .T. ) ;
#75 = AXIS2_PLACEMENT_3D ( 'NONE', #142, #161, #254 ) ;
#76 = VERTEX_POINT ( 'NONE', #196 ) ;
#77 = CARTESIAN_POINT ( 'NONE',  ( 1.326762908760390423E-13, -1.599999999999991651, 38.00000000000000000 ) ) ;
#78 = EDGE_CURVE ( 'NONE', #17, #17, #13, .T. ) ;
#79 = CIRCLE ( 'NONE', #41, 1.599999999999991429 ) ;
#80 = DATE_AND_TIME ( #97, #176 ) ;
#81 = APPROVAL_STATUS ( 'not_yet_approved' ) ;
#82 = AXIS2_PLACEMENT_3D ( 'NONE', #61, #36, #112 ) ;
#83 = APPROVAL ( #156, 'UNSPECIFIED' ) ;
#84 = CYLINDRICAL_SURFACE ( 'NONE', #119, 1.999999999999991340 ) ;
#85 = CARTESIAN_POINT ( 'NONE',  ( 7.035458479540942845E-14, 0.0000000000000000000, 20.15035395226276904 ) ) ;
#86 = ADVANCED_FACE ( 'NONE', ( #71, #69 ), #215, .F. ) ;
#87 = CARTESIAN_POINT ( 'NONE',  ( -9.299933394825861892E-30, 1.999999999999991340, -2.663606788145486711E-15 ) ) ;
#88 = CARTESIAN_POINT ( 'NONE',  ( 1.326762908760390423E-13, -2.449293598294670423E-16, 38.00000000000000000 ) ) ;
#89 = CLOSED_SHELL ( 'NONE', ( #139, #173, #256, #199 ) ) ;
#90 = FACE_OUTER_BOUND ( 'NONE', #107, .T. ) ;
#91 = CARTESIAN_POINT ( 'NONE',  ( 5.586370142149007846E-15, 4.261770861032789782E-15, 1.599999999999998312 ) ) ;
#92 = CARTESIAN_POINT ( 'NONE',  ( 0.3500000000000056399, 0.0000000000000000000, 1.599999999999998979 ) ) ;
#93 = DIRECTION ( 'NONE',  ( 3.491481338843133355E-15, -1.238104456280839559E-16, 1.000000000000000000 ) ) ;
#94 = PRODUCT_DEFINITION ( 'UNKNOWN', '', #27, #245 ) ;
#95 = DATE_AND_TIME ( #20, #203 ) ;
#96 = AXIS2_PLACEMENT_3D ( 'NONE', #104, #188, #140 ) ;
#97 = CALENDAR_DATE ( 2021, 9, 12 ) ;
#98 = EDGE_CURVE ( 'NONE', #76, #76, #162, .T. ) ;
#99 = CALENDAR_DATE ( 2021, 9, 12 ) ;
#100 = EDGE_LOOP ( 'NONE', ( #74 ) ) ;
#101 = CARTESIAN_POINT ( 'NONE',  ( 1.312796983405018394E-13, -1.954051815782345544E-16, 37.60000000000000853 ) ) ;
#102 = CC_DESIGN_APPROVAL ( #214, ( #94 ) ) ;
#103 = FACE_OUTER_BOUND ( 'NONE', #138, .T. ) ;
#104 = CARTESIAN_POINT ( 'NONE',  ( 5.586370142149013368E-15, 0.0000000000000000000, 1.599999999999999867 ) ) ;
#105 = CARTESIAN_POINT ( 'NONE',  ( 5.586370142149014157E-15, 0.0000000000000000000, 1.600000000000000311 ) ) ;
#106 = AXIS2_PLACEMENT_3D ( 'NONE', #216, #213, #148 ) ;
#107 = EDGE_LOOP ( 'NONE', ( #8 ) ) ;
#108 = VERTEX_POINT ( 'NONE', #259 ) ;
#109 = PLANE ( 'NONE',  #227 ) ;
#110 = ADVANCED_FACE ( 'NONE', ( #121, #12 ), #249, .T. ) ;
#111 = AXIS2_PLACEMENT_3D ( 'NONE', #192, #234, #168 ) ;
#112 = DIRECTION ( 'NONE',  ( 1.000000000000000000, 0.0000000000000000000, -3.484935554417691866E-15 ) ) ;
#113 = CYLINDRICAL_SURFACE ( 'NONE', #111, 0.3500000000000000333 ) ;
#114 = COORDINATED_UNIVERSAL_TIME_OFFSET ( 1, 0, .AHEAD. ) ;
#115 = MECHANICAL_CONTEXT ( 'NONE', #201, 'mechanical' ) ;
#116 = CALENDAR_DATE ( 2021, 9, 12 ) ;
#117 = ADVANCED_FACE ( 'NONE', ( #252 ), #70, .F. ) ;
#118 = DATE_TIME_ROLE ( 'creation_date' ) ;
#119 = AXIS2_PLACEMENT_3D ( 'NONE', #187, #257, #231 ) ;
#120 = ORIENTED_EDGE ( 'NONE', *, *, #167, .F. ) ;
#121 = FACE_BOUND ( 'NONE', #185, .T. ) ;
#122 = EDGE_LOOP ( 'NONE', ( #165 ) ) ;
#123 = AXIS2_PLACEMENT_3D ( 'NONE', #85, #26, #11 ) ;
#124 = ORIENTED_EDGE ( 'NONE', *, *, #98, .T. ) ;
#125 = CC_DESIGN_DATE_AND_TIME_ASSIGNMENT ( #80, #118, ( #94 ) ) ;
#126 = DIRECTION ( 'NONE',  ( 3.491481338843133355E-15, -0.0000000000000000000, 1.000000000000000000 ) ) ;
#127 = AXIS2_PLACEMENT_3D ( 'NONE', #105, #126, #210 ) ;
#128 = DIRECTION ( 'NONE',  ( 0.0000000000000000000, 0.0000000000000000000, 1.000000000000000000 ) ) ;
#129 = FACE_OUTER_BOUND ( 'NONE', #52, .T. ) ;
#130 = AXIS2_PLACEMENT_3D ( 'NONE', #229, #73, #55 ) ;
#131 = DIRECTION ( 'NONE',  ( 3.491481338843133355E-15, -0.0000000000000000000, 1.000000000000000000 ) ) ;
#132 = DIRECTION ( 'NONE',  ( 1.000000000000000000, 0.0000000000000000000, -3.717264591378872007E-15 ) ) ;
#133 = PERSON_AND_ORGANIZATION ( #54, #9 ) ;
#134 = ORIENTED_EDGE ( 'NONE', *, *, #225, .F. ) ;
#135 = LOCAL_TIME ( 13, 42, 11.00000000000000000, #200 ) ;
#136 = PERSON_AND_ORGANIZATION ( #54, #9 ) ;
#137 = CALENDAR_DATE ( 2021, 9, 12 ) ;
#138 = EDGE_LOOP ( 'NONE', ( #222 ) ) ;
#139 = ADVANCED_FACE ( 'NONE', ( #232 ), #14, .F. ) ;
#140 = DIRECTION ( 'NONE',  ( 1.000000000000000000, 0.0000000000000000000, -3.491481338843133355E-15 ) ) ;
#141 = DIRECTION ( 'NONE',  ( -3.491481338843133355E-15, 1.238104456280839559E-16, -1.000000000000000000 ) ) ;
#142 = CARTESIAN_POINT ( 'NONE',  ( -3.312287696170532428E-31, 0.0000000000000000000, -9.486769009248163798E-17 ) ) ;
#143 = AXIS2_PLACEMENT_3D ( 'NONE', #146, #128, #242 ) ;
#144 = FACE_OUTER_BOUND ( 'NONE', #244, .T. ) ;
#145 = DIRECTION ( 'NONE',  ( -3.491481338843133355E-15, 1.238104456280839559E-16, -1.000000000000000000 ) ) ;
#146 = CARTESIAN_POINT ( 'NONE',  ( 0.0000000000000000000, 0.0000000000000000000, 0.0000000000000000000 ) ) ;
#147 = CARTESIAN_POINT ( 'NONE',  ( 0.3500000000000004219, 0.0000000000000000000, 0.09999999999999879818 ) ) ;
#148 = DIRECTION ( 'NONE',  ( 1.000000000000000000, 0.0000000000000000000, -3.491481338843133355E-15 ) ) ;
#149 = PRODUCT ( '392805', '392805', '', ( #115 ) ) ;
#150 = APPLICATION_PROTOCOL_DEFINITION ( 'international standard', 'config_control_design', 1994, #201 ) ;
#151 = APPROVAL_STATUS ( 'not_yet_approved' ) ;
#152 = CC_DESIGN_PERSON_AND_ORGANIZATION_ASSIGNMENT ( #40, #226, ( #149 ) ) ;
#153 = DATE_AND_TIME ( #116, #182 ) ;
#154 = TOROIDAL_SURFACE ( 'NONE', #106, 0.2500000000000000000, 0.1000000000000001027 ) ;
#155 = ORIENTED_EDGE ( 'NONE', *, *, #206, .F. ) ;
#156 = APPROVAL_STATUS ( 'not_yet_approved' ) ;
#157 = ORIENTED_EDGE ( 'NONE', *, *, #225, .T. ) ;
#158 = EDGE_LOOP ( 'NONE', ( #155 ) ) ;
#159 = DIRECTION ( 'NONE',  ( 0.0000000000000000000, 1.000000000000000000, 0.0000000000000000000 ) ) ;
#160 = DIRECTION ( 'NONE',  ( 3.491481338843133355E-15, 2.663606788145498150E-15, 1.000000000000000000 ) ) ;
#161 = DIRECTION ( 'NONE',  ( 3.491481338843133355E-15, -0.0000000000000000000, 1.000000000000000000 ) ) ;
#162 = CIRCLE ( 'NONE', #130, 1.999999999999991784 ) ;
#163 = CIRCLE ( 'NONE', #18, 1.999999999999991340 ) ;
#164 = CC_DESIGN_SECURITY_CLASSIFICATION ( #170, ( #27 ) ) ;
#165 = ORIENTED_EDGE ( 'NONE', *, *, #236, .T. ) ;
#166 = DIRECTION ( 'NONE',  ( -4.322818604643076201E-31, -1.000000000000000000, -1.238104456280839559E-16 ) ) ;
#167 = EDGE_CURVE ( 'NONE', #258, #258, #235, .T. ) ;
#168 = DIRECTION ( 'NONE',  ( 1.000000000000000000, 0.0000000000000000000, -3.491481338843133750E-15 ) ) ;
#169 = MANIFOLD_SOLID_BREP ( 'Corps-Déplacer/Copier1[2]', #89 ) ;
#170 = SECURITY_CLASSIFICATION ( '', '', #179 ) ;
#171 = VERTEX_POINT ( 'NONE', #195 ) ;
#172 = DIRECTION ( 'NONE',  ( 3.491481338843133355E-15, -1.238104456280839559E-16, 1.000000000000000000 ) ) ;
#173 = ADVANCED_FACE ( 'NONE', ( #144, #53 ), #154, .T. ) ;
#174 = VERTEX_POINT ( 'NONE', #77 ) ;
#175 = PRODUCT_RELATED_PRODUCT_CATEGORY ( 'detail', '', ( #149 ) ) ;
#176 = LOCAL_TIME ( 13, 42, 11.00000000000000000, #114 ) ;
#177 = APPROVAL_DATE_TIME ( #239, #214 ) ;
#178 = MANIFOLD_SOLID_BREP ( 'Corps-Déplacer/Copier1[1]', #238 ) ;
#179 = SECURITY_CLASSIFICATION_LEVEL ( 'unclassified' ) ;
#180 = PERSON_AND_ORGANIZATION_ROLE ( 'creator' ) ;
#181 = UNCERTAINTY_MEASURE_WITH_UNIT (LENGTH_MEASURE( 1.000000000000000082E-05 ), #261, 'distance_accuracy_value', 'NONE');
#182 = LOCAL_TIME ( 13, 42, 11.00000000000000000, #4 ) ;
#183 = PERSON_AND_ORGANIZATION ( #54, #9 ) ;
#184 = EDGE_LOOP ( 'NONE', ( #6 ) ) ;
#185 = EDGE_LOOP ( 'NONE', ( #240 ) ) ;
#186 = CIRCLE ( 'NONE', #208, 0.4181483474218600782 ) ;
#187 = CARTESIAN_POINT ( 'NONE',  ( 1.326762908760390423E-13, -2.449293598294670423E-16, 38.00000000000000000 ) ) ;
#188 = DIRECTION ( 'NONE',  ( 3.491481338843133355E-15, -0.0000000000000000000, 1.000000000000000000 ) ) ;
#189 = CIRCLE ( 'NONE', #50, 0.3500000000000000333 ) ;
#190 = ADVANCED_BREP_SHAPE_REPRESENTATION ( '392805', ( #178, #169, #143 ), #194 ) ;
#191 = DIRECTION ( 'NONE',  ( 1.000000000000000000, 0.0000000000000000000, -3.469446951953629177E-15 ) ) ;
#192 = CARTESIAN_POINT ( 'NONE',  ( 0.0000000000000000000, 0.0000000000000000000, 0.0000000000000000000 ) ) ;
#193 = CARTESIAN_POINT ( 'NONE',  ( 2.000000000000019540, 0.0000000000000000000, 8.021188827663559451 ) ) ;
#194 =( GEOMETRIC_REPRESENTATION_CONTEXT ( 3 ) GLOBAL_UNCERTAINTY_ASSIGNED_CONTEXT ( ( #181 ) ) GLOBAL_UNIT_ASSIGNED_CONTEXT ( ( #261, #58, #15 ) ) REPRESENTATION_CONTEXT ( 'NONE', 'WORKASPACE' ) );
#195 = CARTESIAN_POINT ( 'NONE',  ( 0.4181483474218674612, 0.0000000000000000000, 2.117638090205027801 ) ) ;
#196 = CARTESIAN_POINT ( 'NONE',  ( 1.312796983405018394E-13, -1.999999999999991784, 37.60000000000000853 ) ) ;
#197 = APPROVAL_ROLE ( '' ) ;
#198 = CIRCLE ( 'NONE', #82, 0.3500000000000000888 ) ;
#199 = ADVANCED_FACE ( 'NONE', ( #90 ), #63, .F. ) ;
#200 = COORDINATED_UNIVERSAL_TIME_OFFSET ( 1, 0, .AHEAD. ) ;
#201 = APPLICATION_CONTEXT ( 'configuration controlled 3d designs of mechanical parts and assemblies' ) ;
#202 = PERSON_AND_ORGANIZATION ( #54, #9 ) ;
#203 = LOCAL_TIME ( 13, 42, 11.00000000000000000, #66 ) ;
#204 = EDGE_LOOP ( 'NONE', ( #228 ) ) ;
#205 = FACE_OUTER_BOUND ( 'NONE', #28, .T. ) ;
#206 = EDGE_CURVE ( 'NONE', #19, #19, #198, .T. ) ;
#207 = ORIENTED_EDGE ( 'NONE', *, *, #167, .T. ) ;
#208 = AXIS2_PLACEMENT_3D ( 'NONE', #209, #30, #29 ) ;
#209 = CARTESIAN_POINT ( 'NONE',  ( 7.393693874374271327E-15, 0.0000000000000000000, 2.117638090205029133 ) ) ;
#210 = DIRECTION ( 'NONE',  ( 1.000000000000000000, 0.0000000000000000000, -3.717264591378872007E-15 ) ) ;
#211 = CARTESIAN_POINT ( 'NONE',  ( 5.586370142149017313E-15, 4.261770861032800037E-15, 1.600000000000001199 ) ) ;
#212 = CARTESIAN_POINT ( 'NONE',  ( 0.2500000000000000000, 0.0000000000000000000, -9.677380248032649768E-16 ) ) ;
#213 = DIRECTION ( 'NONE',  ( 3.491481338843133355E-15, -0.0000000000000000000, 1.000000000000000000 ) ) ;
#214 = APPROVAL ( #151, 'UNSPECIFIED' ) ;
#215 = TOROIDAL_SURFACE ( 'NONE', #96, 2.350000000000000089, 2.000000000000000000 ) ;
#216 = CARTESIAN_POINT ( 'NONE',  ( 3.491481338843133848E-16, 0.0000000000000000000, 0.1000000000000000194 ) ) ;
#217 = CC_DESIGN_PERSON_AND_ORGANIZATION_ASSIGNMENT ( #221, #21, ( #27 ) ) ;
#218 = APPROVAL_DATE_TIME ( #67, #83 ) ;
#219 = EDGE_LOOP ( 'NONE', ( #124 ) ) ;
#220 = COORDINATED_UNIVERSAL_TIME_OFFSET ( 1, 0, .AHEAD. ) ;
#221 = PERSON_AND_ORGANIZATION ( #54, #9 ) ;
#222 = ORIENTED_EDGE ( 'NONE', *, *, #98, .F. ) ;
#223 = APPLICATION_CONTEXT ( 'configuration controlled 3d designs of mechanical parts and assemblies' ) ;
#224 = APPLICATION_PROTOCOL_DEFINITION ( 'international standard', 'config_control_design', 1994, #223 ) ;
#225 = EDGE_CURVE ( 'NONE', #108, #108, #189, .T. ) ;
#226 = PERSON_AND_ORGANIZATION_ROLE ( 'design_owner' ) ;
#227 = AXIS2_PLACEMENT_3D ( 'NONE', #91, #172, #166 ) ;
#228 = ORIENTED_EDGE ( 'NONE', *, *, #206, .T. ) ;
#229 = CARTESIAN_POINT ( 'NONE',  ( 1.312796983405018394E-13, -1.954051815782345544E-16, 37.60000000000000853 ) ) ;
#230 = DIRECTION ( 'NONE',  ( 4.322818604643076201E-31, 1.000000000000000000, 1.238104456280839559E-16 ) ) ;
#231 = DIRECTION ( 'NONE',  ( 0.0000000000000000000, -1.000000000000000000, 0.0000000000000000000 ) ) ;
#232 = FACE_OUTER_BOUND ( 'NONE', #47, .T. ) ;
#233 = ORIENTED_EDGE ( 'NONE', *, *, #78, .F. ) ;
#234 = DIRECTION ( 'NONE',  ( 3.491481338843133355E-15, -0.0000000000000000000, 1.000000000000000000 ) ) ;
#235 = CIRCLE ( 'NONE', #75, 0.2500000000000000000 ) ;
#236 = EDGE_CURVE ( 'NONE', #174, #174, #79, .T. ) ;
#237 = DIRECTION ( 'NONE',  ( 0.0000000000000000000, -1.000000000000000000, 0.0000000000000000000 ) ) ;
#238 = CLOSED_SHELL ( 'NONE', ( #3, #110, #117, #33, #86, #251 ) ) ;
#239 = DATE_AND_TIME ( #99, #31 ) ;
#240 = ORIENTED_EDGE ( 'NONE', *, *, #236, .F. ) ;
#241 = CC_DESIGN_PERSON_AND_ORGANIZATION_ASSIGNMENT ( #65, #2, ( #170 ) ) ;
#242 = DIRECTION ( 'NONE',  ( 1.000000000000000000, 0.0000000000000000000, 0.0000000000000000000 ) ) ;
#243 = CC_DESIGN_APPROVAL ( #43, ( #170 ) ) ;
#244 = EDGE_LOOP ( 'NONE', ( #207 ) ) ;
#245 = DESIGN_CONTEXT ( 'detailed design', #223, 'design' ) ;
#246 = PERSON_AND_ORGANIZATION ( #54, #9 ) ;
#247 = EDGE_LOOP ( 'NONE', ( #233 ) ) ;
#248 = APPROVAL_ROLE ( '' ) ;
#249 = CONICAL_SURFACE ( 'NONE', #23, 1.999999999999991340, 0.7853981633974599363 ) ;
#250 = DIRECTION ( 'NONE',  ( -3.491481338843133355E-15, 0.0000000000000000000, -1.000000000000000000 ) ) ;
#251 = ADVANCED_FACE ( 'NONE', ( #129 ), #109, .F. ) ;
#252 = FACE_OUTER_BOUND ( 'NONE', #122, .T. ) ;
#253 = DIRECTION ( 'NONE',  ( 9.299933394825902529E-30, -1.000000000000000000, 2.663606788145498150E-15 ) ) ;
#254 = DIRECTION ( 'NONE',  ( 1.000000000000000000, 0.0000000000000000000, -3.491481338843133355E-15 ) ) ;
#255 = CONICAL_SURFACE ( 'NONE', #123, 5.249999999999997335, 0.2617993877991426910 ) ;
#256 = ADVANCED_FACE ( 'NONE', ( #38, #16 ), #113, .T. ) ;
#257 = DIRECTION ( 'NONE',  ( 3.491481338843133355E-15, -1.238104456280839559E-16, 1.000000000000000000 ) ) ;
#258 = VERTEX_POINT ( 'NONE', #212 ) ;
#259 = CARTESIAN_POINT ( 'NONE',  ( 0.3500000000000056399, 0.0000000000000000000, 1.599999999999998979 ) ) ;
#260 = VERTEX_POINT ( 'NONE', #193 ) ;
#261 =( LENGTH_UNIT ( ) NAMED_UNIT ( * ) SI_UNIT ( .MILLI., .METRE. ) );
#262 = APPROVAL_PERSON_ORGANIZATION ( #183, #214, #263 ) ;
#263 = APPROVAL_ROLE ( '' ) ;
ENDSEC;
END-ISO-10303-21;
