ISO-10303-21;
HEADER;
FILE_DESCRIPTION (( 'STEP AP203' ),
    '1' );
FILE_NAME ('392803.step',
    '2021-12-09T12:42:10',
    ( '' ),
    ( '' ),
    'SwSTEP 2.0',
    'SolidWorks 2019',
    '' );
FILE_SCHEMA (( 'CONFIG_CONTROL_DESIGN' ));
ENDSEC;

DATA;
#1 = CARTESIAN_POINT ( 'NONE',  ( 6.695397606605643867E-15, 0.0000000000000000000, 1.917638090205028956 ) ) ;
#2 = DIRECTION ( 'NONE',  ( 3.491481338843133355E-15, -1.244722976182555100E-16, 1.000000000000000000 ) ) ;
#3 = FACE_OUTER_BOUND ( 'NONE', #96, .T. ) ;
#4 = DIRECTION ( 'NONE',  ( 1.075066192111236988E-29, -1.000000000000000000, 3.079111952141921537E-15 ) ) ;
#5 = PRODUCT_DEFINITION_SHAPE ( 'NONE', 'NONE',  #52 ) ;
#6 = VERTEX_POINT ( 'NONE', #138 ) ;
#7 = AXIS2_PLACEMENT_3D ( 'NONE', #156, #175, #93 ) ;
#8 =( LENGTH_UNIT ( ) NAMED_UNIT ( * ) SI_UNIT ( .MILLI., .METRE. ) );
#9 = MANIFOLD_SOLID_BREP ( 'Corps-Déplacer/Copier1[1]', #252 ) ;
#10 = DIRECTION ( 'NONE',  ( 4.345927043370676799E-31, 1.000000000000000000, 1.244722976182555100E-16 ) ) ;
#11 = CARTESIAN_POINT ( 'NONE',  ( 1.312796983405018394E-13, -1.999999999999991784, 37.60000000000000853 ) ) ;
#12 = CARTESIAN_POINT ( 'NONE',  ( 1.312796983405018394E-13, -1.951404407821659377E-16, 37.60000000000000853 ) ) ;
#13 = PERSON_AND_ORGANIZATION ( #227, #220 ) ;
#14 = ORIENTED_EDGE ( 'NONE', *, *, #223, .F. ) ;
#15 = EDGE_LOOP ( 'NONE', ( #107 ) ) ;
#16 = APPROVAL_ROLE ( '' ) ;
#17 = AXIS2_PLACEMENT_3D ( 'NONE', #150, #247, #228 ) ;
#18 = AXIS2_PLACEMENT_3D ( 'NONE', #12, #155, #256 ) ;
#19 = PERSON_AND_ORGANIZATION ( #227, #220 ) ;
#20 = EDGE_LOOP ( 'NONE', ( #261 ) ) ;
#21 = CALENDAR_DATE ( 2021, 9, 12 ) ;
#22 = ORIENTED_EDGE ( 'NONE', *, *, #68, .T. ) ;
#23 = CARTESIAN_POINT ( 'NONE',  ( 0.0000000000000000000, 0.0000000000000000000, 0.0000000000000000000 ) ) ;
#24 = AXIS2_PLACEMENT_3D ( 'NONE', #224, #42, #208 ) ;
#25 = FACE_OUTER_BOUND ( 'NONE', #82, .T. ) ;
#26 = EDGE_LOOP ( 'NONE', ( #183 ) ) ;
#27 = LOCAL_TIME ( 13, 42, 10.00000000000000000, #119 ) ;
#28 = CC_DESIGN_DATE_AND_TIME_ASSIGNMENT ( #36, #217, ( #39 ) ) ;
#29 = FACE_OUTER_BOUND ( 'NONE', #20, .T. ) ;
#30 = APPLICATION_PROTOCOL_DEFINITION ( 'international standard', 'config_control_design', 1994, #205 ) ;
#31 = VERTEX_POINT ( 'NONE', #54 ) ;
#32 = FACE_OUTER_BOUND ( 'NONE', #200, .T. ) ;
#33 = PERSON_AND_ORGANIZATION ( #227, #220 ) ;
#34 = ADVANCED_FACE ( 'NONE', ( #250, #129 ), #153, .T. ) ;
#35 = CALENDAR_DATE ( 2021, 9, 12 ) ;
#36 = DATE_AND_TIME ( #240, #77 ) ;
#37 = APPROVAL ( #235, 'UNSPECIFIED' ) ;
#38 = DATE_AND_TIME ( #102, #27 ) ;
#39 = SECURITY_CLASSIFICATION ( '', '', #181 ) ;
#40 = SHAPE_DEFINITION_REPRESENTATION ( #5, #73 ) ;
#41 = ADVANCED_FACE ( 'NONE', ( #106, #169 ), #242, .T. ) ;
#42 = DIRECTION ( 'NONE',  ( 3.491481338843133355E-15, -0.0000000000000000000, 1.000000000000000000 ) ) ;
#43 = CIRCLE ( 'NONE', #61, 0.2999999999999999334 ) ;
#44 = CARTESIAN_POINT ( 'NONE',  ( 3.491481338843133848E-16, 0.0000000000000000000, 0.1000000000000000194 ) ) ;
#45 = FACE_OUTER_BOUND ( 'NONE', #239, .T. ) ;
#46 = FACE_OUTER_BOUND ( 'NONE', #222, .T. ) ;
#47 = AXIS2_PLACEMENT_3D ( 'NONE', #23, #188, #84 ) ;
#48 = AXIS2_PLACEMENT_3D ( 'NONE', #87, #172, #174 ) ;
#49 = DIRECTION ( 'NONE',  ( -3.491481338843133355E-15, 0.0000000000000000000, -1.000000000000000000 ) ) ;
#50 = VERTEX_POINT ( 'NONE', #11 ) ;
#51 =( NAMED_UNIT ( * ) SI_UNIT ( $, .STERADIAN. ) SOLID_ANGLE_UNIT ( ) );
#52 = PRODUCT_DEFINITION ( 'UNKNOWN', '', #201, #189 ) ;
#53 = AXIS2_PLACEMENT_3D ( 'NONE', #92, #214, #116 ) ;
#54 = CARTESIAN_POINT ( 'NONE',  ( 0.3000000000000048184, 0.0000000000000000000, 1.399999999999999023 ) ) ;
#55 = APPLICATION_PROTOCOL_DEFINITION ( 'international standard', 'config_control_design', 1994, #245 ) ;
#56 = AXIS2_PLACEMENT_3D ( 'NONE', #187, #108, #191 ) ;
#57 = APPROVAL_STATUS ( 'not_yet_approved' ) ;
#58 = CC_DESIGN_SECURITY_CLASSIFICATION ( #39, ( #201 ) ) ;
#59 = CYLINDRICAL_SURFACE ( 'NONE', #47, 0.3000000000000000444 ) ;
#60 = DIRECTION ( 'NONE',  ( 0.0000000000000000000, -1.000000000000000000, 0.0000000000000000000 ) ) ;
#61 = AXIS2_PLACEMENT_3D ( 'NONE', #251, #88, #210 ) ;
#62 = CIRCLE ( 'NONE', #18, 1.999999999999991784 ) ;
#63 = DIRECTION ( 'NONE',  ( -4.345927043370676799E-31, -1.000000000000000000, -1.244722976182555100E-16 ) ) ;
#64 = ADVANCED_FACE ( 'NONE', ( #45, #46 ), #59, .T. ) ;
#65 = FACE_BOUND ( 'NONE', #121, .T. ) ;
#66 = CARTESIAN_POINT ( 'NONE',  ( 4.888073874380385909E-15, 0.0000000000000000000, 1.399999999999999689 ) ) ;
#67 = VERTEX_POINT ( 'NONE', #72 ) ;
#68 = EDGE_CURVE ( 'NONE', #67, #67, #130, .T. ) ;
#69 =( NAMED_UNIT ( * ) PLANE_ANGLE_UNIT ( ) SI_UNIT ( $, .RADIAN. ) );
#70 = CYLINDRICAL_SURFACE ( 'NONE', #53, 1.999999999999991340 ) ;
#71 =( GEOMETRIC_REPRESENTATION_CONTEXT ( 3 ) GLOBAL_UNCERTAINTY_ASSIGNED_CONTEXT ( ( #249 ) ) GLOBAL_UNIT_ASSIGNED_CONTEXT ( ( #8, #69, #51 ) ) REPRESENTATION_CONTEXT ( 'NONE', 'WORKASPACE' ) );
#72 = CARTESIAN_POINT ( 'NONE',  ( 1.326762908760390423E-13, -1.599999999999991651, 38.00000000000000000 ) ) ;
#73 = ADVANCED_BREP_SHAPE_REPRESENTATION ( '392803', ( #9, #97, #7 ), #71 ) ;
#74 = ADVANCED_FACE ( 'NONE', ( #225 ), #86, .F. ) ;
#75 = APPROVAL_ROLE ( '' ) ;
#76 = ORIENTED_EDGE ( 'NONE', *, *, #186, .T. ) ;
#77 = LOCAL_TIME ( 13, 42, 10.00000000000000000, #142 ) ;
#78 = ORIENTED_EDGE ( 'NONE', *, *, #196, .T. ) ;
#79 = APPROVAL_DATE_TIME ( #204, #194 ) ;
#80 = ORIENTED_EDGE ( 'NONE', *, *, #215, .T. ) ;
#81 = AXIS2_PLACEMENT_3D ( 'NONE', #44, #209, #128 ) ;
#82 = EDGE_LOOP ( 'NONE', ( #179 ) ) ;
#83 = DIRECTION ( 'NONE',  ( 3.491481338843133355E-15, -0.0000000000000000000, 1.000000000000000000 ) ) ;
#84 = DIRECTION ( 'NONE',  ( 1.000000000000000000, 0.0000000000000000000, -3.491481338843132961E-15 ) ) ;
#85 = CC_DESIGN_PERSON_AND_ORGANIZATION_ASSIGNMENT ( #218, #221, ( #39 ) ) ;
#86 = PLANE ( 'NONE',  #117 ) ;
#87 = CARTESIAN_POINT ( 'NONE',  ( 3.491481338843133848E-16, 0.0000000000000000000, 0.1000000000000000194 ) ) ;
#88 = DIRECTION ( 'NONE',  ( 3.491481338843133355E-15, -0.0000000000000000000, 1.000000000000000000 ) ) ;
#89 = CARTESIAN_POINT ( 'NONE',  ( 1.326762908760390423E-13, -2.449293598294670423E-16, 38.00000000000000000 ) ) ;
#90 = LOCAL_TIME ( 13, 42, 10.00000000000000000, #141 ) ;
#91 = ADVANCED_FACE ( 'NONE', ( #3 ), #151, .F. ) ;
#92 = CARTESIAN_POINT ( 'NONE',  ( 1.326762908760390423E-13, -2.449293598294670423E-16, 38.00000000000000000 ) ) ;
#93 = DIRECTION ( 'NONE',  ( 1.000000000000000000, 0.0000000000000000000, 0.0000000000000000000 ) ) ;
#94 = CC_DESIGN_PERSON_AND_ORGANIZATION_ASSIGNMENT ( #177, #234, ( #133 ) ) ;
#95 = CLOSED_SHELL ( 'NONE', ( #91, #34, #64, #260 ) ) ;
#96 = EDGE_LOOP ( 'NONE', ( #14 ) ) ;
#97 = MANIFOLD_SOLID_BREP ( 'Corps-Déplacer/Copier1[2]', #95 ) ;
#98 = CC_DESIGN_PERSON_AND_ORGANIZATION_ASSIGNMENT ( #19, #144, ( #201 ) ) ;
#99 = CIRCLE ( 'NONE', #48, 0.3000000000000000999 ) ;
#100 = APPROVAL_DATE_TIME ( #38, #103 ) ;
#101 = ORIENTED_EDGE ( 'NONE', *, *, #223, .T. ) ;
#102 = CALENDAR_DATE ( 2021, 9, 12 ) ;
#103 = APPROVAL ( #57, 'UNSPECIFIED' ) ;
#104 = EDGE_LOOP ( 'NONE', ( #125 ) ) ;
#105 = FACE_OUTER_BOUND ( 'NONE', #162, .T. ) ;
#106 = FACE_BOUND ( 'NONE', #146, .T. ) ;
#107 = ORIENTED_EDGE ( 'NONE', *, *, #186, .F. ) ;
#108 = DIRECTION ( 'NONE',  ( 3.491481338843133355E-15, -0.0000000000000000000, 1.000000000000000000 ) ) ;
#109 = APPROVAL_PERSON_ORGANIZATION ( #120, #37, #75 ) ;
#110 = CIRCLE ( 'NONE', #161, 1.999999999999991340 ) ;
#111 = CARTESIAN_POINT ( 'NONE',  ( 2.795905412686783394E-14, 0.0000000000000000000, 8.007791368042019187 ) ) ;
#112 = VERTEX_POINT ( 'NONE', #159 ) ;
#113 = APPROVAL_STATUS ( 'not_yet_approved' ) ;
#114 = LOCAL_TIME ( 13, 42, 10.00000000000000000, #163 ) ;
#115 = CARTESIAN_POINT ( 'NONE',  ( 4.888073874380393797E-15, 4.310756732998696621E-15, 1.400000000000002132 ) ) ;
#116 = DIRECTION ( 'NONE',  ( 0.0000000000000000000, -1.000000000000000000, 0.0000000000000000000 ) ) ;
#117 = AXIS2_PLACEMENT_3D ( 'NONE', #171, #248, #63 ) ;
#118 = CC_DESIGN_APPROVAL ( #103, ( #201 ) ) ;
#119 = COORDINATED_UNIVERSAL_TIME_OFFSET ( 1, 0, .AHEAD. ) ;
#120 = PERSON_AND_ORGANIZATION ( #227, #220 ) ;
#121 = EDGE_LOOP ( 'NONE', ( #154 ) ) ;
#122 = LOCAL_TIME ( 13, 42, 10.00000000000000000, #237 ) ;
#123 = ORIENTED_EDGE ( 'NONE', *, *, #215, .F. ) ;
#124 = EDGE_CURVE ( 'NONE', #31, #31, #43, .T. ) ;
#125 = ORIENTED_EDGE ( 'NONE', *, *, #196, .F. ) ;
#126 = AXIS2_PLACEMENT_3D ( 'NONE', #1, #246, #147 ) ;
#127 = CARTESIAN_POINT ( 'NONE',  ( 1.326762908760390423E-13, -2.449293598294669930E-16, 38.00000000000000000 ) ) ;
#128 = DIRECTION ( 'NONE',  ( 1.000000000000000000, 0.0000000000000000000, -3.491481338843133355E-15 ) ) ;
#129 = FACE_OUTER_BOUND ( 'NONE', #15, .T. ) ;
#130 = CIRCLE ( 'NONE', #229, 1.599999999999991429 ) ;
#131 = DIRECTION ( 'NONE',  ( 3.491481338843133355E-15, 3.079111952141921537E-15, 1.000000000000000000 ) ) ;
#132 = AXIS2_PLACEMENT_3D ( 'NONE', #115, #233, #216 ) ;
#133 = PRODUCT ( '392803', '392803', '', ( #158 ) ) ;
#134 = PRODUCT_RELATED_PRODUCT_CATEGORY ( 'detail', '', ( #133 ) ) ;
#135 = PERSON_AND_ORGANIZATION ( #227, #220 ) ;
#136 = DIRECTION ( 'NONE',  ( -3.491481338843133355E-15, 1.244722976182555100E-16, -1.000000000000000000 ) ) ;
#137 = PLANE ( 'NONE',  #132 ) ;
#138 = CARTESIAN_POINT ( 'NONE',  ( 0.1999999999999999833, 0.0000000000000000000, -7.931639578611083090E-16 ) ) ;
#139 = PERSON_AND_ORGANIZATION_ROLE ( 'creator' ) ;
#140 = TOROIDAL_SURFACE ( 'NONE', #236, 2.299999999999999822, 2.000000000000000000 ) ;
#141 = COORDINATED_UNIVERSAL_TIME_OFFSET ( 1, 0, .AHEAD. ) ;
#142 = COORDINATED_UNIVERSAL_TIME_OFFSET ( 1, 0, .AHEAD. ) ;
#143 = CIRCLE ( 'NONE', #180, 0.2999999999999999334 ) ;
#144 = PERSON_AND_ORGANIZATION_ROLE ( 'design_supplier' ) ;
#145 = EDGE_LOOP ( 'NONE', ( #258 ) ) ;
#146 = EDGE_LOOP ( 'NONE', ( #262 ) ) ;
#147 = DIRECTION ( 'NONE',  ( 1.000000000000000000, 0.0000000000000000000, -3.534017240859009068E-15 ) ) ;
#148 = AXIS2_PLACEMENT_3D ( 'NONE', #226, #131, #4 ) ;
#149 = CIRCLE ( 'NONE', #126, 0.3681483474218599228 ) ;
#150 = CARTESIAN_POINT ( 'NONE',  ( 1.312796983405018394E-13, -1.951404407821659377E-16, 37.60000000000000853 ) ) ;
#151 = PLANE ( 'NONE',  #148 ) ;
#152 = FACE_OUTER_BOUND ( 'NONE', #145, .T. ) ;
#153 = TOROIDAL_SURFACE ( 'NONE', #81, 0.1999999999999999833, 0.1000000000000001027 ) ;
#154 = ORIENTED_EDGE ( 'NONE', *, *, #219, .T. ) ;
#155 = DIRECTION ( 'NONE',  ( 3.491481338843133355E-15, -1.244722976182555100E-16, 1.000000000000000000 ) ) ;
#156 = CARTESIAN_POINT ( 'NONE',  ( 0.0000000000000000000, 0.0000000000000000000, 0.0000000000000000000 ) ) ;
#157 = VERTEX_POINT ( 'NONE', #254 ) ;
#158 = MECHANICAL_CONTEXT ( 'NONE', #245, 'mechanical' ) ;
#159 = CARTESIAN_POINT ( 'NONE',  ( 0.3681483474218666396, 0.0000000000000000000, 1.917638090205027623 ) ) ;
#160 = ORIENTED_EDGE ( 'NONE', *, *, #124, .F. ) ;
#161 = AXIS2_PLACEMENT_3D ( 'NONE', #111, #49, #206 ) ;
#162 = EDGE_LOOP ( 'NONE', ( #78 ) ) ;
#163 = COORDINATED_UNIVERSAL_TIME_OFFSET ( 1, 0, .AHEAD. ) ;
#164 = EDGE_LOOP ( 'NONE', ( #101 ) ) ;
#165 = PERSON_AND_ORGANIZATION ( #227, #220 ) ;
#166 = EDGE_LOOP ( 'NONE', ( #123 ) ) ;
#167 = DIRECTION ( 'NONE',  ( 1.000000000000000000, 0.0000000000000000000, -3.614007241618349165E-15 ) ) ;
#168 = ADVANCED_FACE ( 'NONE', ( #65, #105 ), #243, .T. ) ;
#169 = FACE_OUTER_BOUND ( 'NONE', #26, .T. ) ;
#170 = CC_DESIGN_APPROVAL ( #194, ( #52 ) ) ;
#171 = CARTESIAN_POINT ( 'NONE',  ( 4.888073874380382753E-15, 4.310756732998684788E-15, 1.399999999999998801 ) ) ;
#172 = DIRECTION ( 'NONE',  ( 3.491481338843133355E-15, -0.0000000000000000000, 1.000000000000000000 ) ) ;
#173 = CC_DESIGN_PERSON_AND_ORGANIZATION_ASSIGNMENT ( #33, #202, ( #52 ) ) ;
#174 = DIRECTION ( 'NONE',  ( 1.000000000000000000, 0.0000000000000000000, -3.478481970057658744E-15 ) ) ;
#175 = DIRECTION ( 'NONE',  ( 0.0000000000000000000, 0.0000000000000000000, 1.000000000000000000 ) ) ;
#176 = CC_DESIGN_DATE_AND_TIME_ASSIGNMENT ( #241, #198, ( #52 ) ) ;
#177 = PERSON_AND_ORGANIZATION ( #227, #220 ) ;
#178 = CC_DESIGN_PERSON_AND_ORGANIZATION_ASSIGNMENT ( #13, #139, ( #201 ) ) ;
#179 = ORIENTED_EDGE ( 'NONE', *, *, #238, .F. ) ;
#180 = AXIS2_PLACEMENT_3D ( 'NONE', #185, #83, #167 ) ;
#181 = SECURITY_CLASSIFICATION_LEVEL ( 'unclassified' ) ;
#182 = APPROVAL_DATE_TIME ( #199, #37 ) ;
#183 = ORIENTED_EDGE ( 'NONE', *, *, #238, .T. ) ;
#184 = AXIS2_PLACEMENT_3D ( 'NONE', #89, #136, #10 ) ;
#185 = CARTESIAN_POINT ( 'NONE',  ( 4.888073874380387486E-15, 0.0000000000000000000, 1.400000000000000133 ) ) ;
#186 = EDGE_CURVE ( 'NONE', #253, #253, #99, .T. ) ;
#187 = CARTESIAN_POINT ( 'NONE',  ( 6.965628852764082702E-14, 0.0000000000000000000, 19.95035395226277330 ) ) ;
#188 = DIRECTION ( 'NONE',  ( 3.491481338843133355E-15, -0.0000000000000000000, 1.000000000000000000 ) ) ;
#189 = DESIGN_CONTEXT ( 'detailed design', #205, 'design' ) ;
#190 = ADVANCED_FACE ( 'NONE', ( #211, #152 ), #140, .F. ) ;
#191 = DIRECTION ( 'NONE',  ( 1.000000000000000000, 0.0000000000000000000, -3.336006684570784482E-15 ) ) ;
#192 = APPROVAL_ROLE ( '' ) ;
#193 = APPROVAL_PERSON_ORGANIZATION ( #165, #103, #16 ) ;
#194 = APPROVAL ( #113, 'UNSPECIFIED' ) ;
#195 = CARTESIAN_POINT ( 'NONE',  ( 0.3000000000000048184, 0.0000000000000000000, 1.399999999999999023 ) ) ;
#196 = EDGE_CURVE ( 'NONE', #157, #157, #110, .T. ) ;
#197 = CC_DESIGN_APPROVAL ( #37, ( #39 ) ) ;
#198 = DATE_TIME_ROLE ( 'creation_date' ) ;
#199 = DATE_AND_TIME ( #21, #114 ) ;
#200 = EDGE_LOOP ( 'NONE', ( #22 ) ) ;
#201 = PRODUCT_DEFINITION_FORMATION_WITH_SPECIFIED_SOURCE ( 'ANY', '', #133, .NOT_KNOWN. ) ;
#202 = PERSON_AND_ORGANIZATION_ROLE ( 'creator' ) ;
#203 = EDGE_LOOP ( 'NONE', ( #80 ) ) ;
#205 = APPLICATION_CONTEXT ( 'configuration controlled 3d designs of mechanical parts and assemblies' ) ;
#204 = DATE_AND_TIME ( #35, #122 ) ;
#206 = DIRECTION ( 'NONE',  ( 1.000000000000000000, 0.0000000000000000000, -3.469446951953629177E-15 ) ) ;
#207 = APPROVAL_PERSON_ORGANIZATION ( #135, #194, #192 ) ;
#208 = DIRECTION ( 'NONE',  ( 1.000000000000000000, 0.0000000000000000000, -3.491481338843133750E-15 ) ) ;
#209 = DIRECTION ( 'NONE',  ( 3.491481338843133355E-15, -0.0000000000000000000, 1.000000000000000000 ) ) ;
#210 = DIRECTION ( 'NONE',  ( 1.000000000000000000, 0.0000000000000000000, -3.614007241618349165E-15 ) ) ;
#211 = FACE_OUTER_BOUND ( 'NONE', #203, .T. ) ;
#212 = FACE_OUTER_BOUND ( 'NONE', #104, .T. ) ;
#213 = CIRCLE ( 'NONE', #24, 0.1999999999999999833 ) ;
#214 = DIRECTION ( 'NONE',  ( 3.491481338843133355E-15, -1.244722976182555100E-16, 1.000000000000000000 ) ) ;
#215 = EDGE_CURVE ( 'NONE', #257, #257, #143, .T. ) ;
#216 = DIRECTION ( 'NONE',  ( -1.075066192111236988E-29, 1.000000000000000000, -3.079111952141921537E-15 ) ) ;
#217 = DATE_TIME_ROLE ( 'classification_date' ) ;
#218 = PERSON_AND_ORGANIZATION ( #227, #220 ) ;
#219 = EDGE_CURVE ( 'NONE', #112, #112, #149, .T. ) ;
#220 = ORGANIZATION ( 'UNSPECIFIED', 'UNSPECIFIED', '' ) ;
#221 = PERSON_AND_ORGANIZATION_ROLE ( 'classification_officer' ) ;
#222 = EDGE_LOOP ( 'NONE', ( #160 ) ) ;
#223 = EDGE_CURVE ( 'NONE', #6, #6, #213, .T. ) ;
#224 = CARTESIAN_POINT ( 'NONE',  ( -3.312287696170532428E-31, 0.0000000000000000000, -9.486769009248163798E-17 ) ) ;
#225 = FACE_OUTER_BOUND ( 'NONE', #166, .T. ) ;
#226 = CARTESIAN_POINT ( 'NONE',  ( -1.075066192111232224E-29, 1.999999999999991340, -3.079111952141908127E-15 ) ) ;
#227 = PERSON ( 'UNSPECIFIED', 'UNSPECIFIED', 'UNSPECIFIED', ('UNSPECIFIED'), ('UNSPECIFIED'), ('UNSPECIFIED') ) ;
#228 = DIRECTION ( 'NONE',  ( 0.0000000000000000000, 1.000000000000000000, 0.0000000000000000000 ) ) ;
#229 = AXIS2_PLACEMENT_3D ( 'NONE', #127, #2, #60 ) ;
#230 = DIRECTION ( 'NONE',  ( 1.000000000000000000, 0.0000000000000000000, -3.491481338843133355E-15 ) ) ;
#231 = ADVANCED_FACE ( 'NONE', ( #25, #212 ), #70, .T. ) ;
#232 = CARTESIAN_POINT ( 'NONE',  ( 0.3000000000000004330, 0.0000000000000000000, 0.09999999999999897859 ) ) ;
#233 = DIRECTION ( 'NONE',  ( -3.491481338843133355E-15, -3.079111952141921537E-15, -1.000000000000000000 ) ) ;
#234 = PERSON_AND_ORGANIZATION_ROLE ( 'design_owner' ) ;
#235 = APPROVAL_STATUS ( 'not_yet_approved' ) ;
#236 = AXIS2_PLACEMENT_3D ( 'NONE', #66, #263, #230 ) ;
#237 = COORDINATED_UNIVERSAL_TIME_OFFSET ( 1, 0, .AHEAD. ) ;
#238 = EDGE_CURVE ( 'NONE', #50, #50, #62, .T. ) ;
#239 = EDGE_LOOP ( 'NONE', ( #76 ) ) ;
#240 = CALENDAR_DATE ( 2021, 9, 12 ) ;
#241 = DATE_AND_TIME ( #259, #90 ) ;
#242 = CONICAL_SURFACE ( 'NONE', #17, 1.999999999999991340, 0.7853981633974599363 ) ;
#243 = CONICAL_SURFACE ( 'NONE', #56, 5.199999999999997513, 0.2617993877991426355 ) ;
#244 = ADVANCED_FACE ( 'NONE', ( #32 ), #255, .F. ) ;
#245 = APPLICATION_CONTEXT ( 'configuration controlled 3d designs of mechanical parts and assemblies' ) ;
#246 = DIRECTION ( 'NONE',  ( 3.491481338843133355E-15, -0.0000000000000000000, 1.000000000000000000 ) ) ;
#247 = DIRECTION ( 'NONE',  ( -3.491481338843133355E-15, 1.244722976182555100E-16, -1.000000000000000000 ) ) ;
#248 = DIRECTION ( 'NONE',  ( 3.491481338843133355E-15, -1.244722976182555100E-16, 1.000000000000000000 ) ) ;
#249 = UNCERTAINTY_MEASURE_WITH_UNIT (LENGTH_MEASURE( 1.000000000000000082E-05 ), #8, 'distance_accuracy_value', 'NONE');
#250 = FACE_OUTER_BOUND ( 'NONE', #164, .T. ) ;
#251 = CARTESIAN_POINT ( 'NONE',  ( 4.888073874380387486E-15, 0.0000000000000000000, 1.400000000000000133 ) ) ;
#252 = CLOSED_SHELL ( 'NONE', ( #231, #41, #244, #168, #190, #74 ) ) ;
#253 = VERTEX_POINT ( 'NONE', #232 ) ;
#254 = CARTESIAN_POINT ( 'NONE',  ( 2.000000000000019096, 0.0000000000000000000, 8.007791368042012081 ) ) ;
#255 = PLANE ( 'NONE',  #184 ) ;
#256 = DIRECTION ( 'NONE',  ( 0.0000000000000000000, -1.000000000000000000, 0.0000000000000000000 ) ) ;
#257 = VERTEX_POINT ( 'NONE', #195 ) ;
#258 = ORIENTED_EDGE ( 'NONE', *, *, #219, .F. ) ;
#259 = CALENDAR_DATE ( 2021, 9, 12 ) ;
#260 = ADVANCED_FACE ( 'NONE', ( #29 ), #137, .F. ) ;
#261 = ORIENTED_EDGE ( 'NONE', *, *, #124, .T. ) ;
#262 = ORIENTED_EDGE ( 'NONE', *, *, #68, .F. ) ;
#263 = DIRECTION ( 'NONE',  ( 3.491481338843133355E-15, -0.0000000000000000000, 1.000000000000000000 ) ) ;
ENDSEC;
END-ISO-10303-21;
