ISO-10303-21;
HEADER;
FILE_DESCRIPTION (( 'STEP AP203' ),
    '1' );
FILE_NAME ('392802.step',
    '2021-12-09T12:42:10',
    ( '' ),
    ( '' ),
    'SwSTEP 2.0',
    'SolidWorks 2019',
    '' );
FILE_SCHEMA (( 'CONFIG_CONTROL_DESIGN' ));
ENDSEC;

DATA;
#1 = CC_DESIGN_DATE_AND_TIME_ASSIGNMENT ( #179, #139, ( #89 ) ) ;
#2 = PERSON_AND_ORGANIZATION ( #196, #247 ) ;
#3 = EDGE_LOOP ( 'NONE', ( #241 ) ) ;
#4 = COORDINATED_UNIVERSAL_TIME_OFFSET ( 1, 0, .AHEAD. ) ;
#5 = ORIENTED_EDGE ( 'NONE', *, *, #159, .T. ) ;
#6 = ADVANCED_FACE ( 'NONE', ( #148, #127 ), #93, .T. ) ;
#7 = ORIENTED_EDGE ( 'NONE', *, *, #80, .F. ) ;
#8 = FACE_OUTER_BOUND ( 'NONE', #103, .T. ) ;
#9 = DIRECTION ( 'NONE',  ( 1.000000000000000000, 0.0000000000000000000, -3.491481338843133355E-15 ) ) ;
#10 = CYLINDRICAL_SURFACE ( 'NONE', #58, 1.999999999999991340 ) ;
#11 = FACE_OUTER_BOUND ( 'NONE', #182, .T. ) ;
#12 = APPROVAL ( #40, 'UNSPECIFIED' ) ;
#13 =( NAMED_UNIT ( * ) SI_UNIT ( $, .STERADIAN. ) SOLID_ANGLE_UNIT ( ) );
#14 = CC_DESIGN_SECURITY_CLASSIFICATION ( #117, ( #243 ) ) ;
#15 = DIRECTION ( 'NONE',  ( 1.000000000000000000, 0.0000000000000000000, -3.534017240859009068E-15 ) ) ;
#16 = CC_DESIGN_PERSON_AND_ORGANIZATION_ASSIGNMENT ( #175, #261, ( #259 ) ) ;
#17 = CARTESIAN_POINT ( 'NONE',  ( 1.745740669421566678E-16, 0.0000000000000000000, 0.04999999999999999584 ) ) ;
#18 = COORDINATED_UNIVERSAL_TIME_OFFSET ( 1, 0, .AHEAD. ) ;
#19 = AXIS2_PLACEMENT_3D ( 'NONE', #42, #187, #88 ) ;
#20 = PERSON_AND_ORGANIZATION_ROLE ( 'creator' ) ;
#21 = EDGE_LOOP ( 'NONE', ( #62 ) ) ;
#22 = APPROVAL_ROLE ( '' ) ;
#23 = DIRECTION ( 'NONE',  ( 3.491481338843133355E-15, -0.0000000000000000000, 1.000000000000000000 ) ) ;
#24 = AXIS2_PLACEMENT_3D ( 'NONE', #236, #172, #15 ) ;
#25 = TOROIDAL_SURFACE ( 'NONE', #19, 2.299999999999999822, 2.000000000000000000 ) ;
#26 = PLANE ( 'NONE',  #219 ) ;
#27 = CARTESIAN_POINT ( 'NONE',  ( 1.312796983405018394E-13, -1.951404407821659377E-16, 37.60000000000000853 ) ) ;
#28 = EDGE_LOOP ( 'NONE', ( #7 ) ) ;
#29 = DIRECTION ( 'NONE',  ( 3.491481338843133355E-15, -1.244722976182555100E-16, 1.000000000000000000 ) ) ;
#30 = DIRECTION ( 'NONE',  ( 0.0000000000000000000, -1.000000000000000000, 0.0000000000000000000 ) ) ;
#31 = DIRECTION ( 'NONE',  ( 0.0000000000000000000, 1.000000000000000000, 0.0000000000000000000 ) ) ;
#32 = APPROVAL ( #138, 'UNSPECIFIED' ) ;
#33 = CIRCLE ( 'NONE', #129, 0.2999999999999999334 ) ;
#34 = DIRECTION ( 'NONE',  ( 3.491481338843133355E-15, -0.0000000000000000000, 1.000000000000000000 ) ) ;
#35 = CARTESIAN_POINT ( 'NONE',  ( 0.3681483474218666396, 0.0000000000000000000, 1.917638090205027623 ) ) ;
#36 = APPROVAL_ROLE ( '' ) ;
#37 = APPROVAL_ROLE ( '' ) ;
#38 = CIRCLE ( 'NONE', #74, 1.999999999999991784 ) ;
#39 = COORDINATED_UNIVERSAL_TIME_OFFSET ( 1, 0, .AHEAD. ) ;
#40 = APPROVAL_STATUS ( 'not_yet_approved' ) ;
#41 = CALENDAR_DATE ( 2021, 9, 12 ) ;
#42 = CARTESIAN_POINT ( 'NONE',  ( 4.888073874380385909E-15, 0.0000000000000000000, 1.399999999999999689 ) ) ;
#43 = ADVANCED_FACE ( 'NONE', ( #130 ), #26, .F. ) ;
#44 = DIRECTION ( 'NONE',  ( 1.075066192111236988E-29, -1.000000000000000000, 3.079111952141921537E-15 ) ) ;
#45 = APPROVAL_PERSON_ORGANIZATION ( #193, #32, #36 ) ;
#46 = FACE_OUTER_BOUND ( 'NONE', #145, .T. ) ;
#47 = DIRECTION ( 'NONE',  ( -3.491481338843133355E-15, 1.244722976182555100E-16, -1.000000000000000000 ) ) ;
#48 = EDGE_CURVE ( 'NONE', #71, #71, #244, .T. ) ;
#49 = CARTESIAN_POINT ( 'NONE',  ( 7.030780781515290972E-14, 0.0000000000000000000, 20.13695649264122522 ) ) ;
#50 = AXIS2_PLACEMENT_3D ( 'NONE', #132, #189, #186 ) ;
#51 = APPROVAL ( #110, 'UNSPECIFIED' ) ;
#52 = PLANE ( 'NONE',  #73 ) ;
#53 = APPLICATION_PROTOCOL_DEFINITION ( 'international standard', 'config_control_design', 1994, #218 ) ;
#54 = EDGE_CURVE ( 'NONE', #135, #135, #33, .T. ) ;
#55 = PERSON_AND_ORGANIZATION_ROLE ( 'creator' ) ;
#56 = APPROVAL_PERSON_ORGANIZATION ( #2, #12, #37 ) ;
#57 = ORIENTED_EDGE ( 'NONE', *, *, #124, .T. ) ;
#58 = AXIS2_PLACEMENT_3D ( 'NONE', #63, #126, #131 ) ;
#59 = ADVANCED_FACE ( 'NONE', ( #118 ), #116, .F. ) ;
#60 = PERSON_AND_ORGANIZATION ( #196, #247 ) ;
#61 = APPROVAL_DATE_TIME ( #105, #32 ) ;
#62 = ORIENTED_EDGE ( 'NONE', *, *, #178, .T. ) ;
#63 = CARTESIAN_POINT ( 'NONE',  ( 1.326762908760390423E-13, -2.449293598294670423E-16, 38.00000000000000000 ) ) ;
#64 = ADVANCED_FACE ( 'NONE', ( #70, #228 ), #25, .F. ) ;
#65 = FACE_OUTER_BOUND ( 'NONE', #224, .T. ) ;
#66 = DIRECTION ( 'NONE',  ( 4.345927043370676799E-31, 1.000000000000000000, 1.244722976182555100E-16 ) ) ;
#67 = LOCAL_TIME ( 13, 42, 10.00000000000000000, #18 ) ;
#68 = ADVANCED_BREP_SHAPE_REPRESENTATION ( '392802', ( #85, #91, #232 ), #255 ) ;
#69 = DIRECTION ( 'NONE',  ( 3.491481338843133355E-15, -0.0000000000000000000, 1.000000000000000000 ) ) ;
#70 = FACE_OUTER_BOUND ( 'NONE', #87, .T. ) ;
#71 = VERTEX_POINT ( 'NONE', #176 ) ;
#72 = AXIS2_PLACEMENT_3D ( 'NONE', #112, #23, #150 ) ;
#73 = AXIS2_PLACEMENT_3D ( 'NONE', #212, #97, #174 ) ;
#74 = AXIS2_PLACEMENT_3D ( 'NONE', #27, #154, #30 ) ;
#75 = PRODUCT_DEFINITION_SHAPE ( 'NONE', 'NONE',  #89 ) ;
#76 = LOCAL_TIME ( 13, 42, 10.00000000000000000, #194 ) ;
#77 = VERTEX_POINT ( 'NONE', #256 ) ;
#78 = DATE_AND_TIME ( #245, #183 ) ;
#79 = ORIENTED_EDGE ( 'NONE', *, *, #48, .T. ) ;
#80 = EDGE_CURVE ( 'NONE', #258, #258, #177, .T. ) ;
#81 = ORIENTED_EDGE ( 'NONE', *, *, #225, .F. ) ;
#82 = CLOSED_SHELL ( 'NONE', ( #59, #128, #6, #238 ) ) ;
#83 = APPROVAL_DATE_TIME ( #78, #51 ) ;
#84 = EDGE_LOOP ( 'NONE', ( #198 ) ) ;
#85 = MANIFOLD_SOLID_BREP ( 'Corps-Déplacer/Copier1[1]', #254 ) ;
#86 = PERSON_AND_ORGANIZATION_ROLE ( 'design_supplier' ) ;
#87 = EDGE_LOOP ( 'NONE', ( #195 ) ) ;
#88 = DIRECTION ( 'NONE',  ( 1.000000000000000000, 0.0000000000000000000, -3.491481338843133355E-15 ) ) ;
#89 = PRODUCT_DEFINITION ( 'UNKNOWN', '', #243, #223 ) ;
#90 = CARTESIAN_POINT ( 'NONE',  ( 2.795905412686783394E-14, 0.0000000000000000000, 8.007791368042019187 ) ) ;
#91 = MANIFOLD_SOLID_BREP ( 'Corps-Déplacer/Copier1[2]', #82 ) ;
#92 = DIRECTION ( 'NONE',  ( 1.000000000000000000, 0.0000000000000000000, -3.614007241618349165E-15 ) ) ;
#93 = CYLINDRICAL_SURFACE ( 'NONE', #210, 0.3000000000000000444 ) ;
#94 =( LENGTH_UNIT ( ) NAMED_UNIT ( * ) SI_UNIT ( .MILLI., .METRE. ) );
#95 = ADVANCED_FACE ( 'NONE', ( #46, #166 ), #10, .T. ) ;
#96 = AXIS2_PLACEMENT_3D ( 'NONE', #211, #155, #31 ) ;
#97 = DIRECTION ( 'NONE',  ( -3.491481338843133355E-15, -3.079111952141921537E-15, -1.000000000000000000 ) ) ;
#98 = VERTEX_POINT ( 'NONE', #262 ) ;
#99 = EDGE_CURVE ( 'NONE', #98, #98, #133, .T. ) ;
#100 =( NAMED_UNIT ( * ) PLANE_ANGLE_UNIT ( ) SI_UNIT ( $, .RADIAN. ) );
#101 = AXIS2_PLACEMENT_3D ( 'NONE', #205, #152, #44 ) ;
#102 = DATE_AND_TIME ( #216, #76 ) ;
#103 = EDGE_LOOP ( 'NONE', ( #242 ) ) ;
#104 = ADVANCED_FACE ( 'NONE', ( #250, #65 ), #202, .T. ) ;
#105 = DATE_AND_TIME ( #41, #214 ) ;
#106 = ORIENTED_EDGE ( 'NONE', *, *, #99, .T. ) ;
#107 = LOCAL_TIME ( 13, 42, 10.00000000000000000, #220 ) ;
#108 = CALENDAR_DATE ( 2021, 9, 12 ) ;
#109 = ORIENTED_EDGE ( 'NONE', *, *, #124, .F. ) ;
#110 = APPROVAL_STATUS ( 'not_yet_approved' ) ;
#111 = CC_DESIGN_APPROVAL ( #12, ( #117 ) ) ;
#112 = CARTESIAN_POINT ( 'NONE',  ( -4.022063631064217855E-31, 0.0000000000000000000, -1.151964808265848461E-16 ) ) ;
#113 = PLANE ( 'NONE',  #50 ) ;
#114 = ADVANCED_FACE ( 'NONE', ( #170 ), #113, .F. ) ;
#115 = CARTESIAN_POINT ( 'NONE',  ( 1.745740669421566678E-16, 0.0000000000000000000, 0.05000000000000000278 ) ) ;
#116 = PLANE ( 'NONE',  #101 ) ;
#117 = SECURITY_CLASSIFICATION ( '', '', #240 ) ;
#118 = FACE_OUTER_BOUND ( 'NONE', #144, .T. ) ;
#119 = FACE_OUTER_BOUND ( 'NONE', #190, .T. ) ;
#120 = AXIS2_PLACEMENT_3D ( 'NONE', #185, #29, #151 ) ;
#121 = CARTESIAN_POINT ( 'NONE',  ( 0.0000000000000000000, 0.0000000000000000000, 0.0000000000000000000 ) ) ;
#122 = FACE_BOUND ( 'NONE', #3, .T. ) ;
#123 = ORIENTED_EDGE ( 'NONE', *, *, #159, .F. ) ;
#124 = EDGE_CURVE ( 'NONE', #215, #215, #184, .T. ) ;
#125 = DATE_TIME_ROLE ( 'classification_date' ) ;
#126 = DIRECTION ( 'NONE',  ( 3.491481338843133355E-15, -1.244722976182555100E-16, 1.000000000000000000 ) ) ;
#127 = FACE_OUTER_BOUND ( 'NONE', #84, .T. ) ;
#128 = ADVANCED_FACE ( 'NONE', ( #253, #8 ), #234, .T. ) ;
#129 = AXIS2_PLACEMENT_3D ( 'NONE', #209, #249, #231 ) ;
#130 = FACE_OUTER_BOUND ( 'NONE', #158, .T. ) ;
#131 = DIRECTION ( 'NONE',  ( 0.0000000000000000000, -1.000000000000000000, 0.0000000000000000000 ) ) ;
#132 = CARTESIAN_POINT ( 'NONE',  ( 4.888073874380382753E-15, 4.310756732998684788E-15, 1.399999999999998801 ) ) ;
#133 = CIRCLE ( 'NONE', #204, 1.999999999999991340 ) ;
#134 = VERTEX_POINT ( 'NONE', #35 ) ;
#135 = VERTEX_POINT ( 'NONE', #239 ) ;
#136 = DIRECTION ( 'NONE',  ( 0.0000000000000000000, 0.0000000000000000000, 1.000000000000000000 ) ) ;
#137 = VERTEX_POINT ( 'NONE', #156 ) ;
#138 = APPROVAL_STATUS ( 'not_yet_approved' ) ;
#139 = DATE_TIME_ROLE ( 'creation_date' ) ;
#140 = ORIENTED_EDGE ( 'NONE', *, *, #54, .T. ) ;
#141 = AXIS2_PLACEMENT_3D ( 'NONE', #17, #34, #233 ) ;
#142 = CC_DESIGN_APPROVAL ( #32, ( #89 ) ) ;
#143 = CIRCLE ( 'NONE', #24, 0.3681483474218599228 ) ;
#144 = EDGE_LOOP ( 'NONE', ( #109 ) ) ;
#145 = EDGE_LOOP ( 'NONE', ( #123 ) ) ;
#146 = APPROVAL_DATE_TIME ( #162, #12 ) ;
#147 = PERSON_AND_ORGANIZATION_ROLE ( 'classification_officer' ) ;
#148 = FACE_OUTER_BOUND ( 'NONE', #21, .T. ) ;
#149 = CC_DESIGN_PERSON_AND_ORGANIZATION_ASSIGNMENT ( #60, #86, ( #243 ) ) ;
#150 = DIRECTION ( 'NONE',  ( 1.000000000000000000, 0.0000000000000000000, -3.491481338843133355E-15 ) ) ;
#151 = DIRECTION ( 'NONE',  ( 0.0000000000000000000, -1.000000000000000000, 0.0000000000000000000 ) ) ;
#152 = DIRECTION ( 'NONE',  ( 3.491481338843133355E-15, 3.079111952141921537E-15, 1.000000000000000000 ) ) ;
#153 = CARTESIAN_POINT ( 'NONE',  ( 0.2499999999999999445, 0.0000000000000000000, -9.880668155373679877E-16 ) ) ;
#154 = DIRECTION ( 'NONE',  ( 3.491481338843133355E-15, -1.244722976182555100E-16, 1.000000000000000000 ) ) ;
#155 = DIRECTION ( 'NONE',  ( -3.491481338843133355E-15, 1.244722976182555100E-16, -1.000000000000000000 ) ) ;
#156 = CARTESIAN_POINT ( 'NONE',  ( 1.312796983405018394E-13, -1.999999999999991784, 37.60000000000000853 ) ) ;
#157 = PERSON_AND_ORGANIZATION ( #196, #247 ) ;
#158 = EDGE_LOOP ( 'NONE', ( #79 ) ) ;
#159 = EDGE_CURVE ( 'NONE', #137, #137, #38, .T. ) ;
#160 = EDGE_LOOP ( 'NONE', ( #221 ) ) ;
#161 = APPROVAL_PERSON_ORGANIZATION ( #181, #51, #22 ) ;
#162 = DATE_AND_TIME ( #200, #67 ) ;
#163 = EDGE_LOOP ( 'NONE', ( #246 ) ) ;
#164 = PERSON_AND_ORGANIZATION ( #196, #247 ) ;
#165 = AXIS2_PLACEMENT_3D ( 'NONE', #49, #201, #206 ) ;
#166 = FACE_OUTER_BOUND ( 'NONE', #160, .T. ) ;
#167 = APPLICATION_CONTEXT ( 'configuration controlled 3d designs of mechanical parts and assemblies' ) ;
#168 = DIRECTION ( 'NONE',  ( 1.000000000000000000, 0.0000000000000000000, -3.469446951953629177E-15 ) ) ;
#169 = DIRECTION ( 'NONE',  ( 3.491481338843133355E-15, -0.0000000000000000000, 1.000000000000000000 ) ) ;
#170 = FACE_OUTER_BOUND ( 'NONE', #28, .T. ) ;
#171 = CARTESIAN_POINT ( 'NONE',  ( 4.888073874380387486E-15, 0.0000000000000000000, 1.400000000000000133 ) ) ;
#172 = DIRECTION ( 'NONE',  ( 3.491481338843133355E-15, -0.0000000000000000000, 1.000000000000000000 ) ) ;
#173 = CONICAL_SURFACE ( 'NONE', #96, 1.999999999999991340, 0.7853981633974599363 ) ;
#174 = DIRECTION ( 'NONE',  ( -1.075066192111236988E-29, 1.000000000000000000, -3.079111952141921537E-15 ) ) ;
#175 = PERSON_AND_ORGANIZATION ( #196, #247 ) ;
#176 = CARTESIAN_POINT ( 'NONE',  ( 1.326762908760390423E-13, -1.599999999999991651, 38.00000000000000000 ) ) ;
#177 = CIRCLE ( 'NONE', #248, 0.2999999999999999334 ) ;
#178 = EDGE_CURVE ( 'NONE', #77, #77, #257, .T. ) ;
#179 = DATE_AND_TIME ( #108, #107 ) ;
#180 = EDGE_LOOP ( 'NONE', ( #57 ) ) ;
#181 = PERSON_AND_ORGANIZATION ( #196, #247 ) ;
#182 = EDGE_LOOP ( 'NONE', ( #140 ) ) ;
#183 = LOCAL_TIME ( 13, 42, 10.00000000000000000, #4 ) ;
#184 = CIRCLE ( 'NONE', #72, 0.2499999999999999445 ) ;
#185 = CARTESIAN_POINT ( 'NONE',  ( 1.326762908760390423E-13, -2.449293598294669930E-16, 38.00000000000000000 ) ) ;
#186 = DIRECTION ( 'NONE',  ( -4.345927043370676799E-31, -1.000000000000000000, -1.244722976182555100E-16 ) ) ;
#187 = DIRECTION ( 'NONE',  ( 3.491481338843133355E-15, -0.0000000000000000000, 1.000000000000000000 ) ) ;
#188 = CC_DESIGN_PERSON_AND_ORGANIZATION_ASSIGNMENT ( #164, #20, ( #89 ) ) ;
#189 = DIRECTION ( 'NONE',  ( 3.491481338843133355E-15, -1.244722976182555100E-16, 1.000000000000000000 ) ) ;
#190 = EDGE_LOOP ( 'NONE', ( #5 ) ) ;
#191 = CARTESIAN_POINT ( 'NONE',  ( 0.3000000000000048184, 0.0000000000000000000, 1.399999999999999023 ) ) ;
#192 = MECHANICAL_CONTEXT ( 'NONE', #167, 'mechanical' ) ;
#193 = PERSON_AND_ORGANIZATION ( #196, #247 ) ;
#194 = COORDINATED_UNIVERSAL_TIME_OFFSET ( 1, 0, .AHEAD. ) ;
#195 = ORIENTED_EDGE ( 'NONE', *, *, #80, .T. ) ;
#196 = PERSON ( 'UNSPECIFIED', 'UNSPECIFIED', 'UNSPECIFIED', ('UNSPECIFIED'), ('UNSPECIFIED'), ('UNSPECIFIED') ) ;
#197 = ADVANCED_FACE ( 'NONE', ( #122, #119 ), #173, .T. ) ;
#198 = ORIENTED_EDGE ( 'NONE', *, *, #54, .F. ) ;
#199 = UNCERTAINTY_MEASURE_WITH_UNIT (LENGTH_MEASURE( 1.000000000000000082E-05 ), #94, 'distance_accuracy_value', 'NONE');
#200 = CALENDAR_DATE ( 2021, 9, 12 ) ;
#201 = DIRECTION ( 'NONE',  ( 3.491481338843133355E-15, -0.0000000000000000000, 1.000000000000000000 ) ) ;
#202 = CONICAL_SURFACE ( 'NONE', #165, 5.249999999999997335, 0.2617993877991426355 ) ;
#203 = CC_DESIGN_APPROVAL ( #51, ( #243 ) ) ;
#204 = AXIS2_PLACEMENT_3D ( 'NONE', #90, #227, #168 ) ;
#205 = CARTESIAN_POINT ( 'NONE',  ( -1.075066192111232224E-29, 1.999999999999991340, -3.079111952141908127E-15 ) ) ;
#206 = DIRECTION ( 'NONE',  ( 1.000000000000000000, 0.0000000000000000000, -3.304235192336777090E-15 ) ) ;
#207 = CC_DESIGN_PERSON_AND_ORGANIZATION_ASSIGNMENT ( #263, #55, ( #243 ) ) ;
#208 = DIRECTION ( 'NONE',  ( 1.000000000000000000, 0.0000000000000000000, -3.491481338843132961E-15 ) ) ;
#209 = CARTESIAN_POINT ( 'NONE',  ( 4.888073874380387486E-15, 0.0000000000000000000, 1.400000000000000133 ) ) ;
#210 = AXIS2_PLACEMENT_3D ( 'NONE', #251, #252, #208 ) ;
#211 = CARTESIAN_POINT ( 'NONE',  ( 1.312796983405018394E-13, -1.951404407821659377E-16, 37.60000000000000853 ) ) ;
#212 = CARTESIAN_POINT ( 'NONE',  ( 4.888073874380393797E-15, 4.310756732998696621E-15, 1.400000000000002132 ) ) ;
#213 = APPLICATION_PROTOCOL_DEFINITION ( 'international standard', 'config_control_design', 1994, #167 ) ;
#214 = LOCAL_TIME ( 13, 42, 10.00000000000000000, #39 ) ;
#215 = VERTEX_POINT ( 'NONE', #153 ) ;
#216 = CALENDAR_DATE ( 2021, 9, 12 ) ;
#217 = AXIS2_PLACEMENT_3D ( 'NONE', #115, #169, #9 ) ;
#218 = APPLICATION_CONTEXT ( 'configuration controlled 3d designs of mechanical parts and assemblies' ) ;
#219 = AXIS2_PLACEMENT_3D ( 'NONE', #230, #47, #66 ) ;
#220 = COORDINATED_UNIVERSAL_TIME_OFFSET ( 1, 0, .AHEAD. ) ;
#221 = ORIENTED_EDGE ( 'NONE', *, *, #99, .F. ) ;
#222 = SHAPE_DEFINITION_REPRESENTATION ( #75, #68 ) ;
#223 = DESIGN_CONTEXT ( 'detailed design', #218, 'design' ) ;
#224 = EDGE_LOOP ( 'NONE', ( #106 ) ) ;
#225 = EDGE_CURVE ( 'NONE', #134, #134, #143, .T. ) ;
#226 = EDGE_LOOP ( 'NONE', ( #81 ) ) ;
#227 = DIRECTION ( 'NONE',  ( -3.491481338843133355E-15, 0.0000000000000000000, -1.000000000000000000 ) ) ;
#228 = FACE_OUTER_BOUND ( 'NONE', #226, .T. ) ;
#229 = PRODUCT_RELATED_PRODUCT_CATEGORY ( 'detail', '', ( #259 ) ) ;
#230 = CARTESIAN_POINT ( 'NONE',  ( 1.326762908760390423E-13, -2.449293598294670423E-16, 38.00000000000000000 ) ) ;
#231 = DIRECTION ( 'NONE',  ( 1.000000000000000000, 0.0000000000000000000, -3.614007241618349165E-15 ) ) ;
#232 = AXIS2_PLACEMENT_3D ( 'NONE', #121, #136, #237 ) ;
#233 = DIRECTION ( 'NONE',  ( 1.000000000000000000, 0.0000000000000000000, -3.501069515317773683E-15 ) ) ;
#234 = TOROIDAL_SURFACE ( 'NONE', #217, 0.2499999999999999445, 0.05000000000000012768 ) ;
#235 = CC_DESIGN_PERSON_AND_ORGANIZATION_ASSIGNMENT ( #157, #147, ( #117 ) ) ;
#236 = CARTESIAN_POINT ( 'NONE',  ( 6.695397606605643867E-15, 0.0000000000000000000, 1.917638090205028956 ) ) ;
#237 = DIRECTION ( 'NONE',  ( 1.000000000000000000, 0.0000000000000000000, 0.0000000000000000000 ) ) ;
#238 = ADVANCED_FACE ( 'NONE', ( #11 ), #52, .F. ) ;
#239 = CARTESIAN_POINT ( 'NONE',  ( 0.3000000000000048184, 0.0000000000000000000, 1.399999999999999023 ) ) ;
#240 = SECURITY_CLASSIFICATION_LEVEL ( 'unclassified' ) ;
#241 = ORIENTED_EDGE ( 'NONE', *, *, #48, .F. ) ;
#242 = ORIENTED_EDGE ( 'NONE', *, *, #178, .F. ) ;
#243 = PRODUCT_DEFINITION_FORMATION_WITH_SPECIFIED_SOURCE ( 'ANY', '', #259, .NOT_KNOWN. ) ;
#244 = CIRCLE ( 'NONE', #120, 1.599999999999991429 ) ;
#245 = CALENDAR_DATE ( 2021, 9, 12 ) ;
#246 = ORIENTED_EDGE ( 'NONE', *, *, #225, .T. ) ;
#247 = ORGANIZATION ( 'UNSPECIFIED', 'UNSPECIFIED', '' ) ;
#248 = AXIS2_PLACEMENT_3D ( 'NONE', #171, #69, #92 ) ;
#249 = DIRECTION ( 'NONE',  ( 3.491481338843133355E-15, -0.0000000000000000000, 1.000000000000000000 ) ) ;
#250 = FACE_BOUND ( 'NONE', #163, .T. ) ;
#251 = CARTESIAN_POINT ( 'NONE',  ( 0.0000000000000000000, 0.0000000000000000000, 0.0000000000000000000 ) ) ;
#252 = DIRECTION ( 'NONE',  ( 3.491481338843133355E-15, -0.0000000000000000000, 1.000000000000000000 ) ) ;
#253 = FACE_OUTER_BOUND ( 'NONE', #180, .T. ) ;
#254 = CLOSED_SHELL ( 'NONE', ( #95, #197, #43, #104, #64, #114 ) ) ;
#255 =( GEOMETRIC_REPRESENTATION_CONTEXT ( 3 ) GLOBAL_UNCERTAINTY_ASSIGNED_CONTEXT ( ( #199 ) ) GLOBAL_UNIT_ASSIGNED_CONTEXT ( ( #94, #100, #13 ) ) REPRESENTATION_CONTEXT ( 'NONE', 'WORKASPACE' ) );
#256 = CARTESIAN_POINT ( 'NONE',  ( 0.3000000000000002665, 0.0000000000000000000, 0.04999999999999894806 ) ) ;
#257 = CIRCLE ( 'NONE', #141, 0.3000000000000000999 ) ;
#258 = VERTEX_POINT ( 'NONE', #191 ) ;
#259 = PRODUCT ( '392802', '392802', '', ( #192 ) ) ;
#260 = CC_DESIGN_DATE_AND_TIME_ASSIGNMENT ( #102, #125, ( #117 ) ) ;
#261 = PERSON_AND_ORGANIZATION_ROLE ( 'design_owner' ) ;
#262 = CARTESIAN_POINT ( 'NONE',  ( 2.000000000000019096, 0.0000000000000000000, 8.007791368042012081 ) ) ;
#263 = PERSON_AND_ORGANIZATION ( #196, #247 ) ;
ENDSEC;
END-ISO-10303-21;
