ISO-10303-21;
HEADER;
FILE_DESCRIPTION (( 'STEP AP203' ),
    '1' );
FILE_NAME ('392800.step',
    '2021-12-09T12:42:08',
    ( '' ),
    ( '' ),
    'SwSTEP 2.0',
    'SolidWorks 2019',
    '' );
FILE_SCHEMA (( 'CONFIG_CONTROL_DESIGN' ));
ENDSEC;

DATA;
#1 = DIRECTION ( 'NONE',  ( 0.0000000000000000000, -1.000000000000000000, 0.0000000000000000000 ) ) ;
#2 =( GEOMETRIC_REPRESENTATION_CONTEXT ( 3 ) GLOBAL_UNCERTAINTY_ASSIGNED_CONTEXT ( ( #201 ) ) GLOBAL_UNIT_ASSIGNED_CONTEXT ( ( #209, #227, #145 ) ) REPRESENTATION_CONTEXT ( 'NONE', 'WORKASPACE' ) );
#3 = CC_DESIGN_APPROVAL ( #211, ( #215 ) ) ;
#4 = DIRECTION ( 'NONE',  ( 3.491481338843133355E-15, -0.0000000000000000000, 1.000000000000000000 ) ) ;
#5 = CC_DESIGN_PERSON_AND_ORGANIZATION_ASSIGNMENT ( #165, #90, ( #234 ) ) ;
#6 = ADVANCED_FACE ( 'NONE', ( #140, #136 ), #246, .T. ) ;
#7 = AXIS2_PLACEMENT_3D ( 'NONE', #216, #204, #19 ) ;
#8 = CYLINDRICAL_SURFACE ( 'NONE', #36, 1.999999999999991340 ) ;
#9 = CARTESIAN_POINT ( 'NONE',  ( 1.326762908760390423E-13, -2.449293598294670423E-16, 38.00000000000000000 ) ) ;
#10 = CARTESIAN_POINT ( 'NONE',  ( 3.840629472727448269E-15, 0.0000000000000000000, 1.100000000000000311 ) ) ;
#11 = AXIS2_PLACEMENT_3D ( 'NONE', #155, #4, #217 ) ;
#12 = EDGE_CURVE ( 'NONE', #164, #164, #41, .T. ) ;
#13 = PERSON_AND_ORGANIZATION_ROLE ( 'creator' ) ;
#14 = CALENDAR_DATE ( 2021, 9, 12 ) ;
#15 = PERSON_AND_ORGANIZATION_ROLE ( 'design_supplier' ) ;
#16 = EDGE_LOOP ( 'NONE', ( #37 ) ) ;
#17 = DIRECTION ( 'NONE',  ( 1.000000000000000000, 0.0000000000000000000, -3.491481338843133750E-15 ) ) ;
#18 = EDGE_CURVE ( 'NONE', #162, #162, #159, .T. ) ;
#19 = DIRECTION ( 'NONE',  ( 1.000000000000000000, 0.0000000000000000000, -3.407851026954628270E-15 ) ) ;
#20 = DESIGN_CONTEXT ( 'detailed design', #193, 'design' ) ;
#21 = FACE_OUTER_BOUND ( 'NONE', #134, .T. ) ;
#22 = FACE_OUTER_BOUND ( 'NONE', #71, .T. ) ;
#23 = CYLINDRICAL_SURFACE ( 'NONE', #85, 0.2500000000000001665 ) ;
#24 = CARTESIAN_POINT ( 'NONE',  ( 2.000000000000019096, 0.0000000000000000000, 7.894393908420457961 ) ) ;
#25 = VERTEX_POINT ( 'NONE', #184 ) ;
#26 = APPROVAL ( #127, 'UNSPECIFIED' ) ;
#27 = CARTESIAN_POINT ( 'NONE',  ( 0.0000000000000000000, 0.0000000000000000000, 0.0000000000000000000 ) ) ;
#28 = APPLICATION_PROTOCOL_DEFINITION ( 'international standard', 'config_control_design', 1994, #179 ) ;
#29 = CLOSED_SHELL ( 'NONE', ( #135, #6, #244, #233, #119, #139 ) ) ;
#30 = APPROVAL ( #93, 'UNSPECIFIED' ) ;
#31 = CC_DESIGN_APPROVAL ( #26, ( #255 ) ) ;
#32 = EDGE_LOOP ( 'NONE', ( #190 ) ) ;
#33 = COORDINATED_UNIVERSAL_TIME_OFFSET ( 1, 0, .AHEAD. ) ;
#34 = EDGE_CURVE ( 'NONE', #25, #25, #176, .T. ) ;
#35 = ORIENTED_EDGE ( 'NONE', *, *, #94, .T. ) ;
#36 = AXIS2_PLACEMENT_3D ( 'NONE', #249, #156, #243 ) ;
#37 = ORIENTED_EDGE ( 'NONE', *, *, #94, .F. ) ;
#38 = FACE_OUTER_BOUND ( 'NONE', #132, .T. ) ;
#39 = CARTESIAN_POINT ( 'NONE',  ( 3.840629472727440380E-15, 4.384235540947525719E-15, 1.099999999999998090 ) ) ;
#40 = CIRCLE ( 'NONE', #238, 1.999999999999991784 ) ;
#41 = CIRCLE ( 'NONE', #151, 0.2500000000000001110 ) ;
#42 = CARTESIAN_POINT ( 'NONE',  ( 1.745740669421567171E-16, 0.0000000000000000000, 0.05000000000000001665 ) ) ;
#43 = PLANE ( 'NONE',  #181 ) ;
#44 = PLANE ( 'NONE',  #89 ) ;
#45 = CARTESIAN_POINT ( 'NONE',  ( 0.3181483474218658736, 0.0000000000000000000, 1.617638090205028023 ) ) ;
#46 = ADVANCED_FACE ( 'NONE', ( #247, #79 ), #23, .T. ) ;
#47 = PERSON_AND_ORGANIZATION ( #236, #226 ) ;
#48 = CARTESIAN_POINT ( 'NONE',  ( 0.1999999999999999833, 0.0000000000000000000, -8.134927485952115172E-16 ) ) ;
#49 = CC_DESIGN_DATE_AND_TIME_ASSIGNMENT ( #153, #96, ( #255 ) ) ;
#50 = AXIS2_PLACEMENT_3D ( 'NONE', #120, #99, #17 ) ;
#51 = APPROVAL_PERSON_ORGANIZATION ( #53, #211, #170 ) ;
#52 = APPROVAL_DATE_TIME ( #73, #211 ) ;
#53 = PERSON_AND_ORGANIZATION ( #236, #226 ) ;
#54 = EDGE_LOOP ( 'NONE', ( #171 ) ) ;
#55 = APPROVAL_PERSON_ORGANIZATION ( #131, #30, #212 ) ;
#56 = SECURITY_CLASSIFICATION_LEVEL ( 'unclassified' ) ;
#57 = ORIENTED_EDGE ( 'NONE', *, *, #18, .F. ) ;
#58 = ORIENTED_EDGE ( 'NONE', *, *, #12, .T. ) ;
#59 = CARTESIAN_POINT ( 'NONE',  ( -1.391588779664645168E-29, 1.999999999999991340, -3.985668673588654653E-15 ) ) ;
#60 = DIRECTION ( 'NONE',  ( 3.491481338843133355E-15, -1.254516233272897722E-16, 1.000000000000000000 ) ) ;
#61 = DIRECTION ( 'NONE',  ( -4.380120017748101738E-31, -1.000000000000000000, -1.254516233272897722E-16 ) ) ;
#62 = CARTESIAN_POINT ( 'NONE',  ( 1.312796983405018394E-13, -1.947487104985522476E-16, 37.60000000000000853 ) ) ;
#63 = DIRECTION ( 'NONE',  ( 1.000000000000000000, 0.0000000000000000000, -3.496552006265750222E-15 ) ) ;
#64 = PRODUCT_DEFINITION_SHAPE ( 'NONE', 'NONE',  #255 ) ;
#65 = LOCAL_TIME ( 13, 42, 8.000000000000000000, #235 ) ;
#66 = CARTESIAN_POINT ( 'NONE',  ( 0.2500000000000040523, 0.0000000000000000000, 1.099999999999999423 ) ) ;
#67 = DIRECTION ( 'NONE',  ( 3.491481338843133355E-15, -0.0000000000000000000, 1.000000000000000000 ) ) ;
#68 = VERTEX_POINT ( 'NONE', #251 ) ;
#69 = TOROIDAL_SURFACE ( 'NONE', #11, 2.250000000000000444, 2.000000000000000000 ) ;
#70 = CALENDAR_DATE ( 2021, 9, 12 ) ;
#71 = EDGE_LOOP ( 'NONE', ( #115 ) ) ;
#72 = SHAPE_DEFINITION_REPRESENTATION ( #64, #84 ) ;
#73 = DATE_AND_TIME ( #261, #86 ) ;
#74 = CALENDAR_DATE ( 2021, 9, 12 ) ;
#75 = ORIENTED_EDGE ( 'NONE', *, *, #34, .T. ) ;
#76 = EDGE_CURVE ( 'NONE', #229, #229, #128, .T. ) ;
#77 = PERSON_AND_ORGANIZATION_ROLE ( 'creator' ) ;
#78 = EDGE_LOOP ( 'NONE', ( #241 ) ) ;
#79 = FACE_OUTER_BOUND ( 'NONE', #237, .T. ) ;
#80 = AXIS2_PLACEMENT_3D ( 'NONE', #27, #108, #185 ) ;
#81 = DIRECTION ( 'NONE',  ( 0.0000000000000000000, 1.000000000000000000, 0.0000000000000000000 ) ) ;
#82 = PLANE ( 'NONE',  #105 ) ;
#83 = EDGE_CURVE ( 'NONE', #205, #205, #138, .T. ) ;
#84 = ADVANCED_BREP_SHAPE_REPRESENTATION ( '392800', ( #259, #250, #80 ), #2 ) ;
#85 = AXIS2_PLACEMENT_3D ( 'NONE', #177, #117, #118 ) ;
#86 = LOCAL_TIME ( 13, 42, 8.000000000000000000, #189 ) ;
#87 = DIRECTION ( 'NONE',  ( 1.000000000000000000, 0.0000000000000000000, -3.469446951953611033E-15 ) ) ;
#88 = FACE_OUTER_BOUND ( 'NONE', #240, .T. ) ;
#89 = AXIS2_PLACEMENT_3D ( 'NONE', #9, #124, #182 ) ;
#90 = PERSON_AND_ORGANIZATION_ROLE ( 'design_owner' ) ;
#91 = DATE_AND_TIME ( #14, #133 ) ;
#92 = CIRCLE ( 'NONE', #219, 0.2500000000000002220 ) ;
#93 = APPROVAL_STATUS ( 'not_yet_approved' ) ;
#94 = EDGE_CURVE ( 'NONE', #187, #187, #116, .T. ) ;
#95 = EDGE_LOOP ( 'NONE', ( #113 ) ) ;
#96 = DATE_TIME_ROLE ( 'creation_date' ) ;
#97 = CC_DESIGN_PERSON_AND_ORGANIZATION_ASSIGNMENT ( #149, #15, ( #252 ) ) ;
#98 = DIRECTION ( 'NONE',  ( 3.491481338843133355E-15, -0.0000000000000000000, 1.000000000000000000 ) ) ;
#99 = DIRECTION ( 'NONE',  ( 3.491481338843133355E-15, -0.0000000000000000000, 1.000000000000000000 ) ) ;
#100 = AXIS2_PLACEMENT_3D ( 'NONE', #160, #104, #222 ) ;
#101 = FACE_OUTER_BOUND ( 'NONE', #95, .T. ) ;
#102 = CC_DESIGN_DATE_AND_TIME_ASSIGNMENT ( #91, #260, ( #215 ) ) ;
#103 = CARTESIAN_POINT ( 'NONE',  ( 1.745740669421567171E-16, 0.0000000000000000000, 0.05000000000000001665 ) ) ;
#104 = DIRECTION ( 'NONE',  ( 3.491481338843133355E-15, -1.254516233272897722E-16, 1.000000000000000000 ) ) ;
#105 = AXIS2_PLACEMENT_3D ( 'NONE', #59, #157, #137 ) ;
#106 = CARTESIAN_POINT ( 'NONE',  ( 0.2500000000000002776, 0.0000000000000000000, 0.04999999999999914235 ) ) ;
#107 = DIRECTION ( 'NONE',  ( -3.491481338843133355E-15, -3.985668673588672008E-15, -1.000000000000000000 ) ) ;
#108 = DIRECTION ( 'NONE',  ( 0.0000000000000000000, 0.0000000000000000000, 1.000000000000000000 ) ) ;
#109 = CLOSED_SHELL ( 'NONE', ( #173, #183, #46, #196 ) ) ;
#110 = DIRECTION ( 'NONE',  ( -1.391588779664651334E-29, 1.000000000000000000, -3.985668673588672008E-15 ) ) ;
#111 = CALENDAR_DATE ( 2021, 9, 12 ) ;
#112 = APPROVAL_PERSON_ORGANIZATION ( #47, #26, #256 ) ;
#113 = ORIENTED_EDGE ( 'NONE', *, *, #12, .F. ) ;
#114 = PERSON_AND_ORGANIZATION ( #236, #226 ) ;
#115 = ORIENTED_EDGE ( 'NONE', *, *, #218, .T. ) ;
#116 = CIRCLE ( 'NONE', #147, 1.999999999999991340 ) ;
#117 = DIRECTION ( 'NONE',  ( 3.491481338843133355E-15, -0.0000000000000000000, 1.000000000000000000 ) ) ;
#118 = DIRECTION ( 'NONE',  ( 1.000000000000000000, 0.0000000000000000000, -3.491481338843133355E-15 ) ) ;
#119 = ADVANCED_FACE ( 'NONE', ( #38, #175 ), #69, .F. ) ;
#120 = CARTESIAN_POINT ( 'NONE',  ( -4.022063631064217855E-31, 0.0000000000000000000, -1.151964808265848461E-16 ) ) ;
#121 = AXIS2_PLACEMENT_3D ( 'NONE', #166, #107, #110 ) ;
#122 = CARTESIAN_POINT ( 'NONE',  ( 3.840629472727448269E-15, 0.0000000000000000000, 1.100000000000000311 ) ) ;
#123 = ORIENTED_EDGE ( 'NONE', *, *, #76, .F. ) ;
#124 = DIRECTION ( 'NONE',  ( -3.491481338843133355E-15, 1.254516233272897722E-16, -1.000000000000000000 ) ) ;
#125 = AXIS2_PLACEMENT_3D ( 'NONE', #206, #257, #225 ) ;
#126 = DIRECTION ( 'NONE',  ( 1.000000000000000000, 0.0000000000000000000, -3.491481338843133355E-15 ) ) ;
#127 = APPROVAL_STATUS ( 'not_yet_approved' ) ;
#128 = CIRCLE ( 'NONE', #50, 0.1999999999999999833 ) ;
#129 = COORDINATED_UNIVERSAL_TIME_OFFSET ( 1, 0, .AHEAD. ) ;
#130 = EDGE_LOOP ( 'NONE', ( #220 ) ) ;
#131 = PERSON_AND_ORGANIZATION ( #236, #226 ) ;
#132 = EDGE_LOOP ( 'NONE', ( #75 ) ) ;
#133 = LOCAL_TIME ( 13, 42, 8.000000000000000000, #129 ) ;
#134 = EDGE_LOOP ( 'NONE', ( #192 ) ) ;
#135 = ADVANCED_FACE ( 'NONE', ( #158, #180 ), #8, .T. ) ;
#136 = FACE_OUTER_BOUND ( 'NONE', #54, .T. ) ;
#137 = DIRECTION ( 'NONE',  ( 1.391588779664651334E-29, -1.000000000000000000, 3.985668673588672008E-15 ) ) ;
#138 = CIRCLE ( 'NONE', #100, 1.599999999999991429 ) ;
#139 = ADVANCED_FACE ( 'NONE', ( #242 ), #43, .F. ) ;
#140 = FACE_BOUND ( 'NONE', #152, .T. ) ;
#141 = DIRECTION ( 'NONE',  ( 3.491481338843133355E-15, -1.254516233272897722E-16, 1.000000000000000000 ) ) ;
#142 = FACE_BOUND ( 'NONE', #78, .T. ) ;
#143 = LOCAL_TIME ( 13, 42, 8.000000000000000000, #33 ) ;
#144 = EDGE_CURVE ( 'NONE', #68, #68, #40, .T. ) ;
#145 =( NAMED_UNIT ( * ) SI_UNIT ( $, .STERADIAN. ) SOLID_ANGLE_UNIT ( ) );
#146 = PLANE ( 'NONE',  #121 ) ;
#147 = AXIS2_PLACEMENT_3D ( 'NONE', #245, #197, #174 ) ;
#148 = VERTEX_POINT ( 'NONE', #66 ) ;
#149 = PERSON_AND_ORGANIZATION ( #236, #226 ) ;
#150 = ORIENTED_EDGE ( 'NONE', *, *, #218, .F. ) ;
#151 = AXIS2_PLACEMENT_3D ( 'NONE', #42, #198, #63 ) ;
#152 = EDGE_LOOP ( 'NONE', ( #213 ) ) ;
#153 = DATE_AND_TIME ( #74, #65 ) ;
#154 = EDGE_LOOP ( 'NONE', ( #57 ) ) ;
#155 = CARTESIAN_POINT ( 'NONE',  ( 3.840629472727446691E-15, 0.0000000000000000000, 1.099999999999999867 ) ) ;
#156 = DIRECTION ( 'NONE',  ( 3.491481338843133355E-15, -1.254516233272897722E-16, 1.000000000000000000 ) ) ;
#157 = DIRECTION ( 'NONE',  ( 3.491481338843133355E-15, 3.985668673588672008E-15, 1.000000000000000000 ) ) ;
#158 = FACE_OUTER_BOUND ( 'NONE', #195, .T. ) ;
#159 = CIRCLE ( 'NONE', #7, 0.3181483474218602669 ) ;
#160 = CARTESIAN_POINT ( 'NONE',  ( 1.326762908760390423E-13, -2.449293598294669930E-16, 38.00000000000000000 ) ) ;
#161 = DIRECTION ( 'NONE',  ( 1.000000000000000000, 0.0000000000000000000, -3.469446951953611033E-15 ) ) ;
#162 = VERTEX_POINT ( 'NONE', #45 ) ;
#163 = AXIS2_PLACEMENT_3D ( 'NONE', #122, #98, #87 ) ;
#164 = VERTEX_POINT ( 'NONE', #106 ) ;
#165 = PERSON_AND_ORGANIZATION ( #236, #226 ) ;
#166 = CARTESIAN_POINT ( 'NONE',  ( 3.840629472727454579E-15, 4.384235540947547807E-15, 1.100000000000002309 ) ) ;
#167 = TOROIDAL_SURFACE ( 'NONE', #258, 0.1999999999999999833, 0.05000000000000012768 ) ;
#168 = ORIENTED_EDGE ( 'NONE', *, *, #144, .F. ) ;
#169 = PERSON_AND_ORGANIZATION ( #236, #226 ) ;
#170 = APPROVAL_ROLE ( '' ) ;
#171 = ORIENTED_EDGE ( 'NONE', *, *, #144, .T. ) ;
#172 = AXIS2_PLACEMENT_3D ( 'NONE', #62, #202, #81 ) ;
#173 = ADVANCED_FACE ( 'NONE', ( #199 ), #82, .F. ) ;
#174 = DIRECTION ( 'NONE',  ( 1.000000000000000000, 0.0000000000000000000, -3.469446951953629177E-15 ) ) ;
#175 = FACE_OUTER_BOUND ( 'NONE', #154, .T. ) ;
#176 = CIRCLE ( 'NONE', #163, 0.2500000000000002220 ) ;
#177 = CARTESIAN_POINT ( 'NONE',  ( 0.0000000000000000000, 0.0000000000000000000, 0.0000000000000000000 ) ) ;
#178 = DIRECTION ( 'NONE',  ( 3.491481338843133355E-15, -0.0000000000000000000, 1.000000000000000000 ) ) ;
#179 = APPLICATION_CONTEXT ( 'configuration controlled 3d designs of mechanical parts and assemblies' ) ;
#180 = FACE_OUTER_BOUND ( 'NONE', #16, .T. ) ;
#181 = AXIS2_PLACEMENT_3D ( 'NONE', #39, #141, #61 ) ;
#182 = DIRECTION ( 'NONE',  ( 4.380120017748101738E-31, 1.000000000000000000, 1.254516233272897722E-16 ) ) ;
#183 = ADVANCED_FACE ( 'NONE', ( #21, #101 ), #167, .T. ) ;
#184 = CARTESIAN_POINT ( 'NONE',  ( 0.2500000000000040523, 0.0000000000000000000, 1.099999999999999423 ) ) ;
#185 = DIRECTION ( 'NONE',  ( 1.000000000000000000, 0.0000000000000000000, 0.0000000000000000000 ) ) ;
#186 = CC_DESIGN_PERSON_AND_ORGANIZATION_ASSIGNMENT ( #169, #77, ( #252 ) ) ;
#187 = VERTEX_POINT ( 'NONE', #24 ) ;
#188 = APPROVAL_DATE_TIME ( #214, #26 ) ;
#189 = COORDINATED_UNIVERSAL_TIME_OFFSET ( 1, 0, .AHEAD. ) ;
#190 = ORIENTED_EDGE ( 'NONE', *, *, #34, .F. ) ;
#191 = DATE_AND_TIME ( #111, #239 ) ;
#192 = ORIENTED_EDGE ( 'NONE', *, *, #76, .T. ) ;
#193 = APPLICATION_CONTEXT ( 'configuration controlled 3d designs of mechanical parts and assemblies' ) ;
#194 = APPROVAL_DATE_TIME ( #191, #30 ) ;
#195 = EDGE_LOOP ( 'NONE', ( #168 ) ) ;
#196 = ADVANCED_FACE ( 'NONE', ( #22 ), #146, .F. ) ;
#197 = DIRECTION ( 'NONE',  ( -3.491481338843133355E-15, 0.0000000000000000000, -1.000000000000000000 ) ) ;
#198 = DIRECTION ( 'NONE',  ( 3.491481338843133355E-15, -0.0000000000000000000, 1.000000000000000000 ) ) ;
#199 = FACE_OUTER_BOUND ( 'NONE', #263, .T. ) ;
#200 = CONICAL_SURFACE ( 'NONE', #125, 5.199999999999997513, 0.2617993877991426355 ) ;
#201 = UNCERTAINTY_MEASURE_WITH_UNIT (LENGTH_MEASURE( 1.000000000000000082E-05 ), #209, 'distance_accuracy_value', 'NONE');
#202 = DIRECTION ( 'NONE',  ( -3.491481338843133355E-15, 1.254516233272897722E-16, -1.000000000000000000 ) ) ;
#203 = PRODUCT_RELATED_PRODUCT_CATEGORY ( 'detail', '', ( #234 ) ) ;
#204 = DIRECTION ( 'NONE',  ( 3.491481338843133355E-15, -0.0000000000000000000, 1.000000000000000000 ) ) ;
#205 = VERTEX_POINT ( 'NONE', #208 ) ;
#206 = CARTESIAN_POINT ( 'NONE',  ( 6.926036341349995078E-14, 0.0000000000000000000, 19.83695649264121741 ) ) ;
#207 = FACE_OUTER_BOUND ( 'NONE', #130, .T. ) ;
#208 = CARTESIAN_POINT ( 'NONE',  ( 1.326762908760390423E-13, -1.599999999999991651, 38.00000000000000000 ) ) ;
#209 =( LENGTH_UNIT ( ) NAMED_UNIT ( * ) SI_UNIT ( .MILLI., .METRE. ) );
#210 = APPROVAL_STATUS ( 'not_yet_approved' ) ;
#211 = APPROVAL ( #210, 'UNSPECIFIED' ) ;
#212 = APPROVAL_ROLE ( '' ) ;
#213 = ORIENTED_EDGE ( 'NONE', *, *, #83, .F. ) ;
#214 = DATE_AND_TIME ( #70, #143 ) ;
#215 = SECURITY_CLASSIFICATION ( '', '', #56 ) ;
#216 = CARTESIAN_POINT ( 'NONE',  ( 5.647953204952703860E-15, 0.0000000000000000000, 1.617638090205028911 ) ) ;
#217 = DIRECTION ( 'NONE',  ( 1.000000000000000000, 0.0000000000000000000, -3.491481338843132961E-15 ) ) ;
#218 = EDGE_CURVE ( 'NONE', #148, #148, #92, .T. ) ;
#219 = AXIS2_PLACEMENT_3D ( 'NONE', #10, #67, #161 ) ;
#220 = ORIENTED_EDGE ( 'NONE', *, *, #83, .T. ) ;
#221 = CC_DESIGN_APPROVAL ( #30, ( #252 ) ) ;
#222 = DIRECTION ( 'NONE',  ( 0.0000000000000000000, -1.000000000000000000, 0.0000000000000000000 ) ) ;
#223 = CARTESIAN_POINT ( 'NONE',  ( 1.312796983405018394E-13, -1.947487104985522476E-16, 37.60000000000000853 ) ) ;
#224 = CC_DESIGN_PERSON_AND_ORGANIZATION_ASSIGNMENT ( #114, #230, ( #215 ) ) ;
#225 = DIRECTION ( 'NONE',  ( 1.000000000000000000, 0.0000000000000000000, -3.336006684570784482E-15 ) ) ;
#226 = ORGANIZATION ( 'UNSPECIFIED', 'UNSPECIFIED', '' ) ;
#227 =( NAMED_UNIT ( * ) PLANE_ANGLE_UNIT ( ) SI_UNIT ( $, .RADIAN. ) );
#228 = MECHANICAL_CONTEXT ( 'NONE', #179, 'mechanical' ) ;
#229 = VERTEX_POINT ( 'NONE', #48 ) ;
#230 = PERSON_AND_ORGANIZATION_ROLE ( 'classification_officer' ) ;
#231 = PERSON_AND_ORGANIZATION ( #236, #226 ) ;
#232 = EDGE_LOOP ( 'NONE', ( #58 ) ) ;
#233 = ADVANCED_FACE ( 'NONE', ( #142, #88 ), #200, .T. ) ;
#234 = PRODUCT ( '392800', '392800', '', ( #228 ) ) ;
#235 = COORDINATED_UNIVERSAL_TIME_OFFSET ( 1, 0, .AHEAD. ) ;
#236 = PERSON ( 'UNSPECIFIED', 'UNSPECIFIED', 'UNSPECIFIED', ('UNSPECIFIED'), ('UNSPECIFIED'), ('UNSPECIFIED') ) ;
#237 = EDGE_LOOP ( 'NONE', ( #150 ) ) ;
#238 = AXIS2_PLACEMENT_3D ( 'NONE', #223, #60, #1 ) ;
#239 = LOCAL_TIME ( 13, 42, 8.000000000000000000, #262 ) ;
#240 = EDGE_LOOP ( 'NONE', ( #35 ) ) ;
#241 = ORIENTED_EDGE ( 'NONE', *, *, #18, .T. ) ;
#242 = FACE_OUTER_BOUND ( 'NONE', #32, .T. ) ;
#243 = DIRECTION ( 'NONE',  ( 0.0000000000000000000, -1.000000000000000000, 0.0000000000000000000 ) ) ;
#244 = ADVANCED_FACE ( 'NONE', ( #207 ), #44, .F. ) ;
#245 = CARTESIAN_POINT ( 'NONE',  ( 2.756312901272696085E-14, 0.0000000000000000000, 7.894393908420465067 ) ) ;
#246 = CONICAL_SURFACE ( 'NONE', #172, 1.999999999999991340, 0.7853981633974599363 ) ;
#247 = FACE_OUTER_BOUND ( 'NONE', #232, .T. ) ;
#248 = CC_DESIGN_PERSON_AND_ORGANIZATION_ASSIGNMENT ( #231, #13, ( #255 ) ) ;
#249 = CARTESIAN_POINT ( 'NONE',  ( 1.326762908760390423E-13, -2.449293598294670423E-16, 38.00000000000000000 ) ) ;
#250 = MANIFOLD_SOLID_BREP ( 'Corps-Déplacer/Copier1[2]', #109 ) ;
#251 = CARTESIAN_POINT ( 'NONE',  ( 1.312796983405018394E-13, -1.999999999999991784, 37.60000000000000853 ) ) ;
#252 = PRODUCT_DEFINITION_FORMATION_WITH_SPECIFIED_SOURCE ( 'ANY', '', #234, .NOT_KNOWN. ) ;
#253 = CC_DESIGN_SECURITY_CLASSIFICATION ( #215, ( #252 ) ) ;
#254 = APPLICATION_PROTOCOL_DEFINITION ( 'international standard', 'config_control_design', 1994, #193 ) ;
#255 = PRODUCT_DEFINITION ( 'UNKNOWN', '', #252, #20 ) ;
#256 = APPROVAL_ROLE ( '' ) ;
#257 = DIRECTION ( 'NONE',  ( 3.491481338843133355E-15, -0.0000000000000000000, 1.000000000000000000 ) ) ;
#258 = AXIS2_PLACEMENT_3D ( 'NONE', #103, #178, #126 ) ;
#259 = MANIFOLD_SOLID_BREP ( 'Corps-Déplacer/Copier1[1]', #29 ) ;
#260 = DATE_TIME_ROLE ( 'classification_date' ) ;
#261 = CALENDAR_DATE ( 2021, 9, 12 ) ;
#262 = COORDINATED_UNIVERSAL_TIME_OFFSET ( 1, 0, .AHEAD. ) ;
#263 = EDGE_LOOP ( 'NONE', ( #123 ) ) ;
ENDSEC;
END-ISO-10303-21;
