ISO-10303-21;
HEADER;
FILE_DESCRIPTION (( 'STEP AP203' ),
    '1' );
FILE_NAME ('392799.step',
    '2021-12-09T12:42:08',
    ( '' ),
    ( '' ),
    'SwSTEP 2.0',
    'SolidWorks 2019',
    '' );
FILE_SCHEMA (( 'CONFIG_CONTROL_DESIGN' ));
ENDSEC;

DATA;
#1 = COORDINATED_UNIVERSAL_TIME_OFFSET ( 1, 0, .AHEAD. ) ;
#2 = CONICAL_SURFACE ( 'NONE', #113, 5.099999999999997868, 0.2617993877991355856 ) ;
#3 = CC_DESIGN_APPROVAL ( #125, ( #43 ) ) ;
#4 = APPROVAL_DATE_TIME ( #6, #87 ) ;
#5 = ADVANCED_FACE ( 'NONE', ( #133, #161 ), #2, .T. ) ;
#6 = DATE_AND_TIME ( #149, #228 ) ;
#7 = EDGE_LOOP ( 'NONE', ( #150 ) ) ;
#8 = CALENDAR_DATE ( 2021, 9, 12 ) ;
#9 = ORIENTED_EDGE ( 'NONE', *, *, #32, .T. ) ;
#10 = ADVANCED_FACE ( 'NONE', ( #221, #223 ), #34, .T. ) ;
#11 = DATE_AND_TIME ( #124, #65 ) ;
#12 = PRODUCT_DEFINITION_SHAPE ( 'NONE', 'NONE',  #233 ) ;
#13 = FACE_OUTER_BOUND ( 'NONE', #157, .T. ) ;
#14 = FACE_OUTER_BOUND ( 'NONE', #172, .T. ) ;
#15 = FACE_OUTER_BOUND ( 'NONE', #30, .T. ) ;
#16 = APPLICATION_CONTEXT ( 'configuration controlled 3d designs of mechanical parts and assemblies' ) ;
#17 = DIRECTION ( 'NONE',  ( -3.430167004375123214E-29, 1.000000000000000000, -9.824388766493232151E-15 ) ) ;
#18 = DIRECTION ( 'NONE',  ( -3.491481338843133355E-15, -9.824388766493232151E-15, -1.000000000000000000 ) ) ;
#19 =( LENGTH_UNIT ( ) NAMED_UNIT ( * ) SI_UNIT ( .MILLI., .METRE. ) );
#20 = CARTESIAN_POINT ( 'NONE',  ( 1.312796983405018394E-13, -1.999999999999991784, 37.60000000000000853 ) ) ;
#21 = FACE_OUTER_BOUND ( 'NONE', #51, .T. ) ;
#22 = APPLICATION_CONTEXT ( 'configuration controlled 3d designs of mechanical parts and assemblies' ) ;
#23 = CARTESIAN_POINT ( 'NONE',  ( 1.326762908760390423E-13, -2.449293598294669436E-16, 38.00000000000000000 ) ) ;
#24 = ADVANCED_FACE ( 'NONE', ( #73 ), #114, .F. ) ;
#25 = PERSON_AND_ORGANIZATION_ROLE ( 'creator' ) ;
#26 = ORIENTED_EDGE ( 'NONE', *, *, #63, .F. ) ;
#27 = COORDINATED_UNIVERSAL_TIME_OFFSET ( 1, 0, .AHEAD. ) ;
#28 = ORIENTED_EDGE ( 'NONE', *, *, #37, .F. ) ;
#29 = AXIS2_PLACEMENT_3D ( 'NONE', #254, #112, #75 ) ;
#30 = EDGE_LOOP ( 'NONE', ( #69 ) ) ;
#31 = DIRECTION ( 'NONE',  ( 3.491481338843133355E-15, -0.0000000000000000000, 1.000000000000000000 ) ) ;
#32 = EDGE_CURVE ( 'NONE', #118, #118, #212, .T. ) ;
#33 = CARTESIAN_POINT ( 'NONE',  ( -3.312287696170532428E-31, 0.0000000000000000000, -9.486769009248163798E-17 ) ) ;
#34 = CONICAL_SURFACE ( 'NONE', #140, 1.999999999999991340, 0.7853981633974599363 ) ;
#35 = PLANE ( 'NONE',  #72 ) ;
#36 = DIRECTION ( 'NONE',  ( 3.491481338843133355E-15, -0.0000000000000000000, 1.000000000000000000 ) ) ;
#37 = EDGE_CURVE ( 'NONE', #101, #101, #76, .T. ) ;
#38 = FACE_OUTER_BOUND ( 'NONE', #214, .T. ) ;
#39 = DIRECTION ( 'NONE',  ( 0.0000000000000000000, -1.000000000000000000, 0.0000000000000000000 ) ) ;
#40 = PRODUCT_DEFINITION_FORMATION_WITH_SPECIFIED_SOURCE ( 'ANY', '', #240, .NOT_KNOWN. ) ;
#41 = APPROVAL ( #123, 'UNSPECIFIED' ) ;
#42 = PERSON_AND_ORGANIZATION ( #185, #94 ) ;
#43 = SECURITY_CLASSIFICATION ( '', '', #177 ) ;
#44 = VERTEX_POINT ( 'NONE', #230 ) ;
#45 = PRODUCT_RELATED_PRODUCT_CATEGORY ( 'detail', '', ( #240 ) ) ;
#46 = PERSON_AND_ORGANIZATION ( #185, #94 ) ;
#47 = ORIENTED_EDGE ( 'NONE', *, *, #32, .F. ) ;
#48 = CIRCLE ( 'NONE', #241, 0.1999999999999996503 ) ;
#49 = DATE_AND_TIME ( #8, #197 ) ;
#50 = EDGE_LOOP ( 'NONE', ( #248 ) ) ;
#51 = EDGE_LOOP ( 'NONE', ( #26 ) ) ;
#52 = DIRECTION ( 'NONE',  ( 3.491481338843133355E-15, -2.449293598294704935E-16, 1.000000000000000000 ) ) ;
#53 = ADVANCED_FACE ( 'NONE', ( #15 ), #35, .F. ) ;
#54 = CARTESIAN_POINT ( 'NONE',  ( 6.791054785822102108E-14, 0.0000000000000000000, 19.45035395226327779 ) ) ;
#55 = DIRECTION ( 'NONE',  ( 0.0000000000000000000, 1.000000000000000000, 0.0000000000000000000 ) ) ;
#56 = CLOSED_SHELL ( 'NONE', ( #250, #10, #171, #5, #158, #186 ) ) ;
#57 = ADVANCED_FACE ( 'NONE', ( #14, #38 ), #222, .T. ) ;
#58 = DIRECTION ( 'NONE',  ( 1.000000000000000000, 0.0000000000000000000, -3.491481338843133750E-15 ) ) ;
#59 = CARTESIAN_POINT ( 'NONE',  ( 1.326762908760390423E-13, -2.449293598294669930E-16, 38.00000000000000000 ) ) ;
#60 = DIRECTION ( 'NONE',  ( 1.000000000000000000, 0.0000000000000000000, 0.0000000000000000000 ) ) ;
#61 = CARTESIAN_POINT ( 'NONE',  ( 2.000000000000014211, 0.0000000000000000000, 7.880996448799070464 ) ) ;
#62 = AXIS2_PLACEMENT_3D ( 'NONE', #23, #205, #39 ) ;
#63 = EDGE_CURVE ( 'NONE', #102, #102, #199, .T. ) ;
#64 = DIRECTION ( 'NONE',  ( 0.0000000000000000000, 0.0000000000000000000, 1.000000000000000000 ) ) ;
#65 = LOCAL_TIME ( 13, 42, 8.000000000000000000, #211 ) ;
#66 = PERSON_AND_ORGANIZATION_ROLE ( 'design_supplier' ) ;
#67 = EDGE_LOOP ( 'NONE', ( #108 ) ) ;
#68 = AXIS2_PLACEMENT_3D ( 'NONE', #71, #52, #204 ) ;
#69 = ORIENTED_EDGE ( 'NONE', *, *, #37, .T. ) ;
#70 = PERSON_AND_ORGANIZATION ( #185, #94 ) ;
#71 = CARTESIAN_POINT ( 'NONE',  ( 3.142333204958812526E-15, 8.841949889843890003E-15, 0.8999999999999978018 ) ) ;
#72 = AXIS2_PLACEMENT_3D ( 'NONE', #138, #18, #17 ) ;
#73 = FACE_OUTER_BOUND ( 'NONE', #194, .T. ) ;
#74 = DIRECTION ( 'NONE',  ( 3.491481338843133355E-15, -0.0000000000000000000, 1.000000000000000000 ) ) ;
#75 = DIRECTION ( 'NONE',  ( 1.000000000000000000, 0.0000000000000000000, -3.234633911891514064E-15 ) ) ;
#76 = CIRCLE ( 'NONE', #88, 0.1999999999999996503 ) ;
#77 = LOCAL_TIME ( 13, 42, 8.000000000000000000, #86 ) ;
#78 = VERTEX_POINT ( 'NONE', #142 ) ;
#79 = CYLINDRICAL_SURFACE ( 'NONE', #136, 0.1999999999999998723 ) ;
#80 = CARTESIAN_POINT ( 'NONE',  ( 0.1000000000000000194, 0.0000000000000000000, -4.440158239767950721E-16 ) ) ;
#81 = CC_DESIGN_PERSON_AND_ORGANIZATION_ASSIGNMENT ( #195, #25, ( #233 ) ) ;
#82 = CARTESIAN_POINT ( 'NONE',  ( 0.0000000000000000000, 0.0000000000000000000, 0.0000000000000000000 ) ) ;
#83 = EDGE_LOOP ( 'NONE', ( #220 ) ) ;
#84 = APPROVAL_PERSON_ORGANIZATION ( #42, #41, #107 ) ;
#85 = APPROVAL_ROLE ( '' ) ;
#86 = COORDINATED_UNIVERSAL_TIME_OFFSET ( 1, 0, .AHEAD. ) ;
#87 = APPROVAL ( #192, 'UNSPECIFIED' ) ;
#88 = AXIS2_PLACEMENT_3D ( 'NONE', #179, #137, #243 ) ;
#89 = AXIS2_PLACEMENT_3D ( 'NONE', #165, #206, #260 ) ;
#90 = PERSON_AND_ORGANIZATION_ROLE ( 'creator' ) ;
#91 = EDGE_LOOP ( 'NONE', ( #247 ) ) ;
#92 = PLANE ( 'NONE',  #68 ) ;
#93 = CARTESIAN_POINT ( 'NONE',  ( 3.491481338843133848E-16, 0.0000000000000000000, 0.1000000000000000194 ) ) ;
#94 = ORGANIZATION ( 'UNSPECIFIED', 'UNSPECIFIED', '' ) ;
#95 = FACE_OUTER_BOUND ( 'NONE', #83, .T. ) ;
#96 = CARTESIAN_POINT ( 'NONE',  ( 2.751635203247098171E-14, 0.0000000000000000000, 7.880996448799077569 ) ) ;
#97 = DIRECTION ( 'NONE',  ( 3.491481338843133355E-15, -2.449293598294704935E-16, 1.000000000000000000 ) ) ;
#98 = CYLINDRICAL_SURFACE ( 'NONE', #89, 1.999999999999987121 ) ;
#99 = EDGE_CURVE ( 'NONE', #44, #44, #48, .T. ) ;
#100 = CARTESIAN_POINT ( 'NONE',  ( 0.2000000000000028144, 0.0000000000000000000, 0.8999999999999976907 ) ) ;
#101 = VERTEX_POINT ( 'NONE', #100 ) ;
#102 = VERTEX_POINT ( 'NONE', #61 ) ;
#103 = CC_DESIGN_PERSON_AND_ORGANIZATION_ASSIGNMENT ( #148, #175, ( #43 ) ) ;
#104 = CARTESIAN_POINT ( 'NONE',  ( 0.0000000000000000000, 0.0000000000000000000, 0.0000000000000000000 ) ) ;
#105 = CALENDAR_DATE ( 2021, 9, 12 ) ;
#106 = AXIS2_PLACEMENT_3D ( 'NONE', #96, #180, #182 ) ;
#107 = APPROVAL_ROLE ( '' ) ;
#108 = ORIENTED_EDGE ( 'NONE', *, *, #63, .T. ) ;
#109 = EDGE_LOOP ( 'NONE', ( #159 ) ) ;
#110 = PERSON_AND_ORGANIZATION ( #185, #94 ) ;
#111 = CARTESIAN_POINT ( 'NONE',  ( -3.430167004375108080E-29, 1.999999999999991340, -9.824388766493189552E-15 ) ) ;
#112 = DIRECTION ( 'NONE',  ( 3.491481338843133355E-15, -0.0000000000000000000, 1.000000000000000000 ) ) ;
#113 = AXIS2_PLACEMENT_3D ( 'NONE', #54, #135, #200 ) ;
#114 = PLANE ( 'NONE',  #130 ) ;
#115 = MANIFOLD_SOLID_BREP ( 'Corps-Déplacer/Copier1[1]', #56 ) ;
#116 = DIRECTION ( 'NONE',  ( 8.551662891793911958E-31, 1.000000000000000000, 2.449293598294704935E-16 ) ) ;
#117 = APPROVAL_PERSON_ORGANIZATION ( #70, #125, #85 ) ;
#118 = VERTEX_POINT ( 'NONE', #80 ) ;
#119 = MANIFOLD_SOLID_BREP ( 'Corps-Déplacer/Copier1[2]', #207 ) ;
#120 = PERSON_AND_ORGANIZATION ( #185, #94 ) ;
#121 = CIRCLE ( 'NONE', #29, 0.2681483474218562257 ) ;
#122 = CC_DESIGN_APPROVAL ( #41, ( #233 ) ) ;
#123 = APPROVAL_STATUS ( 'not_yet_approved' ) ;
#124 = CALENDAR_DATE ( 2021, 9, 12 ) ;
#125 = APPROVAL ( #126, 'UNSPECIFIED' ) ;
#126 = APPROVAL_STATUS ( 'not_yet_approved' ) ;
#127 = SHAPE_DEFINITION_REPRESENTATION ( #12, #160 ) ;
#128 = EDGE_LOOP ( 'NONE', ( #153 ) ) ;
#129 = EDGE_CURVE ( 'NONE', #141, #141, #121, .T. ) ;
#130 = AXIS2_PLACEMENT_3D ( 'NONE', #111, #239, #132 ) ;
#131 = AXIS2_PLACEMENT_3D ( 'NONE', #82, #64, #60 ) ;
#132 = DIRECTION ( 'NONE',  ( 3.430167004375123214E-29, -1.000000000000000000, 9.824388766493232151E-15 ) ) ;
#133 = FACE_BOUND ( 'NONE', #50, .T. ) ;
#134 = EDGE_CURVE ( 'NONE', #231, #231, #156, .T. ) ;
#135 = DIRECTION ( 'NONE',  ( 3.491481338843133355E-15, -0.0000000000000000000, 1.000000000000000000 ) ) ;
#136 = AXIS2_PLACEMENT_3D ( 'NONE', #104, #146, #169 ) ;
#137 = DIRECTION ( 'NONE',  ( 3.491481338843133355E-15, -0.0000000000000000000, 1.000000000000000000 ) ) ;
#138 = CARTESIAN_POINT ( 'NONE',  ( 3.142333204958847235E-15, 8.841949889843986244E-15, 0.9000000000000079048 ) ) ;
#139 = CARTESIAN_POINT ( 'NONE',  ( 3.491481338843133848E-16, 0.0000000000000000000, 0.1000000000000000194 ) ) ;
#140 = AXIS2_PLACEMENT_3D ( 'NONE', #226, #257, #55 ) ;
#141 = VERTEX_POINT ( 'NONE', #209 ) ;
#142 = CARTESIAN_POINT ( 'NONE',  ( 1.326762908760390423E-13, -1.599999999999991651, 38.00000000000000000 ) ) ;
#143 = PERSON_AND_ORGANIZATION_ROLE ( 'design_owner' ) ;
#144 = AXIS2_PLACEMENT_3D ( 'NONE', #93, #31, #201 ) ;
#145 = CIRCLE ( 'NONE', #224, 0.2000000000000001221 ) ;
#146 = DIRECTION ( 'NONE',  ( 3.491481338843133355E-15, -0.0000000000000000000, 1.000000000000000000 ) ) ;
#147 = APPROVAL_DATE_TIME ( #11, #41 ) ;
#148 = PERSON_AND_ORGANIZATION ( #185, #94 ) ;
#149 = CALENDAR_DATE ( 2021, 9, 12 ) ;
#150 = ORIENTED_EDGE ( 'NONE', *, *, #134, .T. ) ;
#151 = CC_DESIGN_PERSON_AND_ORGANIZATION_ASSIGNMENT ( #110, #66, ( #40 ) ) ;
#152 = CALENDAR_DATE ( 2021, 9, 12 ) ;
#153 = ORIENTED_EDGE ( 'NONE', *, *, #219, .T. ) ;
#154 = DATE_AND_TIME ( #152, #77 ) ;
#155 = DIRECTION ( 'NONE',  ( 0.0000000000000000000, -1.000000000000000000, 0.0000000000000000000 ) ) ;
#156 = CIRCLE ( 'NONE', #162, 1.999999999999991784 ) ;
#157 = EDGE_LOOP ( 'NONE', ( #193 ) ) ;
#158 = ADVANCED_FACE ( 'NONE', ( #184, #259 ), #196, .F. ) ;
#159 = ORIENTED_EDGE ( 'NONE', *, *, #134, .F. ) ;
#160 = ADVANCED_BREP_SHAPE_REPRESENTATION ( '392799', ( #115, #119, #131 ), #208 ) ;
#161 = FACE_OUTER_BOUND ( 'NONE', #67, .T. ) ;
#162 = AXIS2_PLACEMENT_3D ( 'NONE', #255, #97, #155 ) ;
#163 = CC_DESIGN_APPROVAL ( #87, ( #40 ) ) ;
#164 = PLANE ( 'NONE',  #253 ) ;
#165 = CARTESIAN_POINT ( 'NONE',  ( 1.326762908760390423E-13, -2.449293598294670423E-16, 38.00000000000000000 ) ) ;
#166 = AXIS2_PLACEMENT_3D ( 'NONE', #33, #198, #58 ) ;
#167 = MECHANICAL_CONTEXT ( 'NONE', #22, 'mechanical' ) ;
#168 =( NAMED_UNIT ( * ) PLANE_ANGLE_UNIT ( ) SI_UNIT ( $, .RADIAN. ) );
#169 = DIRECTION ( 'NONE',  ( 1.000000000000000000, 0.0000000000000000000, -3.491481338843133750E-15 ) ) ;
#170 = APPROVAL_DATE_TIME ( #154, #125 ) ;
#171 = ADVANCED_FACE ( 'NONE', ( #95 ), #164, .F. ) ;
#172 = EDGE_LOOP ( 'NONE', ( #9 ) ) ;
#173 = DATE_TIME_ROLE ( 'creation_date' ) ;
#174 = EDGE_LOOP ( 'NONE', ( #236 ) ) ;
#175 = PERSON_AND_ORGANIZATION_ROLE ( 'classification_officer' ) ;
#176 = EDGE_LOOP ( 'NONE', ( #218 ) ) ;
#177 = SECURITY_CLASSIFICATION_LEVEL ( 'unclassified' ) ;
#178 = ORIENTED_EDGE ( 'NONE', *, *, #219, .F. ) ;
#179 = CARTESIAN_POINT ( 'NONE',  ( 3.142333204958814103E-15, 0.0000000000000000000, 0.8999999999999983569 ) ) ;
#180 = DIRECTION ( 'NONE',  ( -3.491481338843133355E-15, 0.0000000000000000000, -1.000000000000000000 ) ) ;
#181 = CARTESIAN_POINT ( 'NONE',  ( 3.142333204958813314E-15, 0.0000000000000000000, 0.8999999999999980238 ) ) ;
#182 = DIRECTION ( 'NONE',  ( 1.000000000000000000, 0.0000000000000000000, -3.469446951953636671E-15 ) ) ;
#183 = CC_DESIGN_DATE_AND_TIME_ASSIGNMENT ( #188, #173, ( #233 ) ) ;
#184 = FACE_OUTER_BOUND ( 'NONE', #174, .T. ) ;
#185 = PERSON ( 'UNSPECIFIED', 'UNSPECIFIED', 'UNSPECIFIED', ('UNSPECIFIED'), ('UNSPECIFIED'), ('UNSPECIFIED') ) ;
#186 = ADVANCED_FACE ( 'NONE', ( #13 ), #92, .F. ) ;
#187 = VERTEX_POINT ( 'NONE', #246 ) ;
#188 = DATE_AND_TIME ( #105, #237 ) ;
#189 = CC_DESIGN_SECURITY_CLASSIFICATION ( #43, ( #40 ) ) ;
#190 = PERSON_AND_ORGANIZATION ( #185, #94 ) ;
#191 = UNCERTAINTY_MEASURE_WITH_UNIT (LENGTH_MEASURE( 1.000000000000000082E-05 ), #19, 'distance_accuracy_value', 'NONE');
#192 = APPROVAL_STATUS ( 'not_yet_approved' ) ;
#193 = ORIENTED_EDGE ( 'NONE', *, *, #99, .F. ) ;
#194 = EDGE_LOOP ( 'NONE', ( #47 ) ) ;
#195 = PERSON_AND_ORGANIZATION ( #185, #94 ) ;
#196 = TOROIDAL_SURFACE ( 'NONE', #258, 2.199999999999999734, 2.000000000000000000 ) ;
#197 = LOCAL_TIME ( 13, 42, 8.000000000000000000, #251 ) ;
#198 = DIRECTION ( 'NONE',  ( 3.491481338843133355E-15, -0.0000000000000000000, 1.000000000000000000 ) ) ;
#199 = CIRCLE ( 'NONE', #106, 1.999999999999987121 ) ;
#200 = DIRECTION ( 'NONE',  ( 1.000000000000000000, 0.0000000000000000000, -3.401418580346682101E-15 ) ) ;
#201 = DIRECTION ( 'NONE',  ( 1.000000000000000000, 0.0000000000000000000, -3.491481338843132961E-15 ) ) ;
#202 = CC_DESIGN_PERSON_AND_ORGANIZATION_ASSIGNMENT ( #46, #90, ( #40 ) ) ;
#203 = DIRECTION ( 'NONE',  ( 1.000000000000000000, 0.0000000000000000000, -3.491481338843133355E-15 ) ) ;
#204 = DIRECTION ( 'NONE',  ( -8.551662891793911958E-31, -1.000000000000000000, -2.449293598294704935E-16 ) ) ;
#205 = DIRECTION ( 'NONE',  ( 3.491481338843133355E-15, -2.449293598294704935E-16, 1.000000000000000000 ) ) ;
#206 = DIRECTION ( 'NONE',  ( 3.491481338843133355E-15, -2.449293598294704935E-16, 1.000000000000000000 ) ) ;
#207 = CLOSED_SHELL ( 'NONE', ( #24, #57, #235, #53 ) ) ;
#208 =( GEOMETRIC_REPRESENTATION_CONTEXT ( 3 ) GLOBAL_UNCERTAINTY_ASSIGNED_CONTEXT ( ( #191 ) ) GLOBAL_UNIT_ASSIGNED_CONTEXT ( ( #19, #168, #263 ) ) REPRESENTATION_CONTEXT ( 'NONE', 'WORKASPACE' ) );
#209 = CARTESIAN_POINT ( 'NONE',  ( 0.2681483474218611662, 0.0000000000000000000, 1.417638090205011636 ) ) ;
#210 = DESIGN_CONTEXT ( 'detailed design', #16, 'design' ) ;
#211 = COORDINATED_UNIVERSAL_TIME_OFFSET ( 1, 0, .AHEAD. ) ;
#212 = CIRCLE ( 'NONE', #166, 0.1000000000000000194 ) ;
#213 = CIRCLE ( 'NONE', #62, 1.599999999999991429 ) ;
#214 = EDGE_LOOP ( 'NONE', ( #178 ) ) ;
#215 = CC_DESIGN_PERSON_AND_ORGANIZATION_ASSIGNMENT ( #120, #143, ( #240 ) ) ;
#216 = APPROVAL_ROLE ( '' ) ;
#217 = APPROVAL_PERSON_ORGANIZATION ( #190, #87, #216 ) ;
#218 = ORIENTED_EDGE ( 'NONE', *, *, #129, .F. ) ;
#219 = EDGE_CURVE ( 'NONE', #187, #187, #145, .T. ) ;
#220 = ORIENTED_EDGE ( 'NONE', *, *, #256, .T. ) ;
#221 = FACE_BOUND ( 'NONE', #91, .T. ) ;
#222 = TOROIDAL_SURFACE ( 'NONE', #144, 0.1000000000000000056, 0.1000000000000001166 ) ;
#223 = FACE_OUTER_BOUND ( 'NONE', #7, .T. ) ;
#224 = AXIS2_PLACEMENT_3D ( 'NONE', #139, #245, #262 ) ;
#225 = CARTESIAN_POINT ( 'NONE',  ( 3.142333204958814103E-15, 0.0000000000000000000, 0.8999999999999983569 ) ) ;
#226 = CARTESIAN_POINT ( 'NONE',  ( 1.312796983405018394E-13, -1.469576158976809994E-16, 37.60000000000000853 ) ) ;
#227 = FACE_OUTER_BOUND ( 'NONE', #128, .T. ) ;
#228 = LOCAL_TIME ( 13, 42, 8.000000000000000000, #1 ) ;
#229 = CC_DESIGN_DATE_AND_TIME_ASSIGNMENT ( #49, #249, ( #43 ) ) ;
#230 = CARTESIAN_POINT ( 'NONE',  ( 0.2000000000000028144, 0.0000000000000000000, 0.8999999999999976907 ) ) ;
#231 = VERTEX_POINT ( 'NONE', #20 ) ;
#232 = APPLICATION_PROTOCOL_DEFINITION ( 'international standard', 'config_control_design', 1994, #16 ) ;
#233 = PRODUCT_DEFINITION ( 'UNKNOWN', '', #40, #210 ) ;
#234 = FACE_OUTER_BOUND ( 'NONE', #109, .T. ) ;
#235 = ADVANCED_FACE ( 'NONE', ( #227, #244 ), #79, .T. ) ;
#236 = ORIENTED_EDGE ( 'NONE', *, *, #99, .T. ) ;
#237 = LOCAL_TIME ( 13, 42, 8.000000000000000000, #27 ) ;
#238 = DIRECTION ( 'NONE',  ( -3.491481338843133355E-15, 2.449293598294704935E-16, -1.000000000000000000 ) ) ;
#239 = DIRECTION ( 'NONE',  ( 3.491481338843133355E-15, 9.824388766493232151E-15, 1.000000000000000000 ) ) ;
#240 = PRODUCT ( '392799', '392799', '', ( #167 ) ) ;
#241 = AXIS2_PLACEMENT_3D ( 'NONE', #225, #36, #252 ) ;
#242 = EDGE_LOOP ( 'NONE', ( #28 ) ) ;
#243 = DIRECTION ( 'NONE',  ( 1.000000000000000000, 0.0000000000000000000, -3.252606517456518824E-15 ) ) ;
#244 = FACE_OUTER_BOUND ( 'NONE', #242, .T. ) ;
#245 = DIRECTION ( 'NONE',  ( 3.491481338843133355E-15, -0.0000000000000000000, 1.000000000000000000 ) ) ;
#246 = CARTESIAN_POINT ( 'NONE',  ( 0.2000000000000004829, 0.0000000000000000000, 0.09999999999999931166 ) ) ;
#247 = ORIENTED_EDGE ( 'NONE', *, *, #256, .F. ) ;
#248 = ORIENTED_EDGE ( 'NONE', *, *, #129, .T. ) ;
#249 = DATE_TIME_ROLE ( 'classification_date' ) ;
#250 = ADVANCED_FACE ( 'NONE', ( #234, #21 ), #98, .T. ) ;
#251 = COORDINATED_UNIVERSAL_TIME_OFFSET ( 1, 0, .AHEAD. ) ;
#252 = DIRECTION ( 'NONE',  ( 1.000000000000000000, 0.0000000000000000000, -3.252606517456518824E-15 ) ) ;
#253 = AXIS2_PLACEMENT_3D ( 'NONE', #59, #238, #116 ) ;
#254 = CARTESIAN_POINT ( 'NONE',  ( 4.949656937184019603E-15, 0.0000000000000000000, 1.417638090205012524 ) ) ;
#255 = CARTESIAN_POINT ( 'NONE',  ( 1.312796983405018394E-13, -1.469576158976809994E-16, 37.60000000000000853 ) ) ;
#256 = EDGE_CURVE ( 'NONE', #78, #78, #213, .T. ) ;
#257 = DIRECTION ( 'NONE',  ( -3.491481338843133355E-15, 2.449293598294704935E-16, -1.000000000000000000 ) ) ;
#258 = AXIS2_PLACEMENT_3D ( 'NONE', #181, #74, #203 ) ;
#259 = FACE_OUTER_BOUND ( 'NONE', #176, .T. ) ;
#260 = DIRECTION ( 'NONE',  ( 0.0000000000000000000, -1.000000000000000000, 0.0000000000000000000 ) ) ;
#261 = APPLICATION_PROTOCOL_DEFINITION ( 'international standard', 'config_control_design', 1994, #22 ) ;
#262 = DIRECTION ( 'NONE',  ( 1.000000000000000000, 0.0000000000000000000, -3.523657060577887438E-15 ) ) ;
#263 =( NAMED_UNIT ( * ) SI_UNIT ( $, .STERADIAN. ) SOLID_ANGLE_UNIT ( ) );
ENDSEC;
END-ISO-10303-21;
