ISO-10303-21;
HEADER;
FILE_DESCRIPTION (( 'STEP AP203' ),
    '1' );
FILE_NAME ('39040.step',
    '2021-10-08T05:53:51',
    ( '' ),
    ( '' ),
    'SwSTEP 2.0',
    'SolidWorks 2019',
    '' );
FILE_SCHEMA (( 'CONFIG_CONTROL_DESIGN' ));
ENDSEC;

DATA;
#1 = COORDINATED_UNIVERSAL_TIME_OFFSET ( 1, 0, .AHEAD. ) ;
#2 = CALENDAR_DATE ( 2021, 8, 10 ) ;
#3 = CARTESIAN_POINT ( 'NONE',  ( 3.910459099504309358E-14, -1.371604415045035513E-15, 11.19999999999999929 ) ) ;
#4 = DIRECTION ( 'NONE',  ( -3.491481338843133355E-15, 1.224646799147353207E-16, -1.000000000000000000 ) ) ;
#5 = DIRECTION ( 'NONE',  ( -3.491481338843133355E-15, 1.224646799147353207E-16, -1.000000000000000000 ) ) ;
#6 = CYLINDRICAL_SURFACE ( 'NONE', #199, 0.7499999999999990008 ) ;
#7 = DIRECTION ( 'NONE',  ( 4.275831445896958607E-31, 1.000000000000000000, 1.224646799147353207E-16 ) ) ;
#8 = CARTESIAN_POINT ( 'NONE',  ( 3.910459099504309358E-14, 0.7499999999999981126, 11.19999999999999929 ) ) ;
#9 = APPROVAL ( #171, 'UNSPECIFIED' ) ;
#10 = AXIS2_PLACEMENT_3D ( 'NONE', #179, #33, #99 ) ;
#11 = APPLICATION_PROTOCOL_DEFINITION ( 'international standard', 'config_control_design', 1994, #18 ) ;
#12 =( GEOMETRIC_REPRESENTATION_CONTEXT ( 3 ) GLOBAL_UNCERTAINTY_ASSIGNED_CONTEXT ( ( #156 ) ) GLOBAL_UNIT_ASSIGNED_CONTEXT ( ( #215, #146, #132 ) ) REPRESENTATION_CONTEXT ( 'NONE', 'WORKASPACE' ) );
#13 = DIRECTION ( 'NONE',  ( 0.0000000000000000000, 1.000000000000000000, 0.0000000000000000000 ) ) ;
#14 = DIRECTION ( 'NONE',  ( -3.491481338843133355E-15, 1.224646799147353207E-16, -1.000000000000000000 ) ) ;
#15 = CARTESIAN_POINT ( 'NONE',  ( 4.061644676318182681E-14, 0.9999999999999963363, 11.63301270189222159 ) ) ;
#16 = APPROVAL_DATE_TIME ( #187, #9 ) ;
#17 = CC_DESIGN_PERSON_AND_ORGANIZATION_ASSIGNMENT ( #144, #162, ( #93 ) ) ;
#18 = APPLICATION_CONTEXT ( 'configuration controlled 3d designs of mechanical parts and assemblies' ) ;
#19 = PERSON_AND_ORGANIZATION ( #49, #182 ) ;
#20 = APPROVAL_STATUS ( 'not_yet_approved' ) ;
#21 = EDGE_CURVE ( 'NONE', #217, #217, #173, .T. ) ;
#22 = EDGE_LOOP ( 'NONE', ( #60 ) ) ;
#23 = PLANE ( 'NONE',  #50 ) ;
#24 = ORIENTED_EDGE ( 'NONE', *, *, #188, .T. ) ;
#25 = ADVANCED_FACE ( 'NONE', ( #107, #40 ), #189, .T. ) ;
#26 = DIRECTION ( 'NONE',  ( -4.275831445896958607E-31, -1.000000000000000000, -1.224646799147353207E-16 ) ) ;
#27 = EDGE_LOOP ( 'NONE', ( #209 ) ) ;
#28 = CARTESIAN_POINT ( 'NONE',  ( 1.511855768138743288E-15, 0.7499999999999985567, 0.4330127018922235727 ) ) ;
#29 = PRODUCT_DEFINITION ( 'UNKNOWN', '', #134, #86 ) ;
#30 = AXIS2_PLACEMENT_3D ( 'NONE', #142, #139, #58 ) ;
#31 = FACE_OUTER_BOUND ( 'NONE', #206, .T. ) ;
#32 = AXIS2_PLACEMENT_3D ( 'NONE', #44, #198, #183 ) ;
#33 = DIRECTION ( 'NONE',  ( 0.0000000000000000000, 0.0000000000000000000, 1.000000000000000000 ) ) ;
#34 = APPROVAL_STATUS ( 'not_yet_approved' ) ;
#35 = AXIS2_PLACEMENT_3D ( 'NONE', #157, #5, #178 ) ;
#36 = PERSON_AND_ORGANIZATION ( #49, #182 ) ;
#37 = ADVANCED_FACE ( 'NONE', ( #41, #110 ), #6, .T. ) ;
#38 = CLOSED_SHELL ( 'NONE', ( #80, #147, #25, #121, #72 ) ) ;
#39 = MANIFOLD_SOLID_BREP ( 'Corps-Déplacer/Copier1[2]', #143 ) ;
#40 = FACE_OUTER_BOUND ( 'NONE', #191, .T. ) ;
#41 = FACE_OUTER_BOUND ( 'NONE', #158, .T. ) ;
#42 = EDGE_LOOP ( 'NONE', ( #106 ) ) ;
#43 = DIRECTION ( 'NONE',  ( 3.491481338843133355E-15, -1.224646799147353207E-16, 1.000000000000000000 ) ) ;
#44 = CARTESIAN_POINT ( 'NONE',  ( 1.511855768138743091E-15, -5.302876193624585727E-17, 0.4330127018922234616 ) ) ;
#45 = VERTEX_POINT ( 'NONE', #46 ) ;
#46 = CARTESIAN_POINT ( 'NONE',  ( 3.910459099504309358E-14, 0.7499999999999981126, 11.19999999999999929 ) ) ;
#47 = DIRECTION ( 'NONE',  ( 3.491481338843133355E-15, -1.224646799147353207E-16, 1.000000000000000000 ) ) ;
#48 = PERSON_AND_ORGANIZATION_ROLE ( 'creator' ) ;
#49 = PERSON ( 'UNSPECIFIED', 'UNSPECIFIED', 'UNSPECIFIED', ('UNSPECIFIED'), ('UNSPECIFIED'), ('UNSPECIFIED') ) ;
#50 = AXIS2_PLACEMENT_3D ( 'NONE', #177, #4, #7 ) ;
#51 = APPROVAL_DATE_TIME ( #66, #204 ) ;
#52 = CALENDAR_DATE ( 2021, 8, 10 ) ;
#53 = DATE_TIME_ROLE ( 'classification_date' ) ;
#54 = EDGE_LOOP ( 'NONE', ( #24 ) ) ;
#55 = EDGE_CURVE ( 'NONE', #82, #82, #207, .T. ) ;
#56 = EDGE_LOOP ( 'NONE', ( #141 ) ) ;
#57 = LOCAL_TIME ( 7, 53, 51.00000000000000000, #137 ) ;
#58 = DIRECTION ( 'NONE',  ( 0.0000000000000000000, 1.000000000000000000, 0.0000000000000000000 ) ) ;
#59 = DIRECTION ( 'NONE',  ( 0.0000000000000000000, 1.000000000000000000, 0.0000000000000000000 ) ) ;
#60 = ORIENTED_EDGE ( 'NONE', *, *, #90, .F. ) ;
#61 = DIRECTION ( 'NONE',  ( -4.275831445896958607E-31, -1.000000000000000000, -1.224646799147353207E-16 ) ) ;
#62 = AXIS2_PLACEMENT_3D ( 'NONE', #148, #167, #77 ) ;
#63 = DIRECTION ( 'NONE',  ( 0.0000000000000000000, -1.000000000000000000, 0.0000000000000000000 ) ) ;
#64 = VERTEX_POINT ( 'NONE', #130 ) ;
#65 = VERTEX_POINT ( 'NONE', #28 ) ;
#66 = DATE_AND_TIME ( #87, #67 ) ;
#67 = LOCAL_TIME ( 7, 53, 51.00000000000000000, #100 ) ;
#68 = APPROVAL_ROLE ( '' ) ;
#69 = DATE_AND_TIME ( #2, #211 ) ;
#70 = AXIS2_PLACEMENT_3D ( 'NONE', #115, #14, #13 ) ;
#71 = DIRECTION ( 'NONE',  ( -3.491481338843133355E-15, 1.224646799147353207E-16, -1.000000000000000000 ) ) ;
#72 = ADVANCED_FACE ( 'NONE', ( #76 ), #23, .F. ) ;
#73 = CARTESIAN_POINT ( 'NONE',  ( 3.910459099504309358E-14, 5.624099184981941397E-33, 11.19999999999999929 ) ) ;
#74 = DIRECTION ( 'NONE',  ( -3.491481338843133355E-15, 1.224646799147353207E-16, -1.000000000000000000 ) ) ;
#75 = CC_DESIGN_SECURITY_CLASSIFICATION ( #96, ( #134 ) ) ;
#76 = FACE_OUTER_BOUND ( 'NONE', #94, .T. ) ;
#77 = DIRECTION ( 'NONE',  ( 5.135813185032639159E-31, 1.000000000000000000, 1.445602896647342121E-16 ) ) ;
#78 = AXIS2_PLACEMENT_3D ( 'NONE', #160, #74, #127 ) ;
#79 = AXIS2_PLACEMENT_3D ( 'NONE', #3, #113, #213 ) ;
#80 = ADVANCED_FACE ( 'NONE', ( #193 ), #88, .F. ) ;
#81 = CARTESIAN_POINT ( 'NONE',  ( 4.061644676318182681E-14, -1.424633176981281019E-15, 11.63301270189222159 ) ) ;
#82 = VERTEX_POINT ( 'NONE', #8 ) ;
#83 = APPLICATION_PROTOCOL_DEFINITION ( 'international standard', 'config_control_design', 1994, #168 ) ;
#84 = PRODUCT_RELATED_PRODUCT_CATEGORY ( 'detail', '', ( #93 ) ) ;
#85 = PERSON_AND_ORGANIZATION_ROLE ( 'classification_officer' ) ;
#86 = DESIGN_CONTEXT ( 'detailed design', #18, 'design' ) ;
#87 = CALENDAR_DATE ( 2021, 8, 10 ) ;
#88 = PLANE ( 'NONE',  #124 ) ;
#89 = CONICAL_SURFACE ( 'NONE', #70, 0.8000000000000009326, 0.7853981633974512766 ) ;
#90 = EDGE_CURVE ( 'NONE', #98, #98, #175, .T. ) ;
#91 = CIRCLE ( 'NONE', #79, 0.7499999999999994449 ) ;
#92 = ORIENTED_EDGE ( 'NONE', *, *, #55, .T. ) ;
#93 = PRODUCT ( '39040', '39040', '', ( #195 ) ) ;
#94 = EDGE_LOOP ( 'NONE', ( #123 ) ) ;
#95 = EDGE_LOOP ( 'NONE', ( #194 ) ) ;
#96 = SECURITY_CLASSIFICATION ( '', '', #150 ) ;
#97 = FACE_BOUND ( 'NONE', #105, .T. ) ;
#98 = VERTEX_POINT ( 'NONE', #15 ) ;
#99 = DIRECTION ( 'NONE',  ( 1.000000000000000000, 0.0000000000000000000, 0.0000000000000000000 ) ) ;
#100 = COORDINATED_UNIVERSAL_TIME_OFFSET ( 1, 0, .AHEAD. ) ;
#101 = CONICAL_SURFACE ( 'NONE', #32, 0.7499999999999985567, 1.047197551196592746 ) ;
#102 = CC_DESIGN_DATE_AND_TIME_ASSIGNMENT ( #203, #118, ( #29 ) ) ;
#103 = PERSON_AND_ORGANIZATION ( #49, #182 ) ;
#104 = CC_DESIGN_PERSON_AND_ORGANIZATION_ASSIGNMENT ( #119, #138, ( #134 ) ) ;
#105 = EDGE_LOOP ( 'NONE', ( #109 ) ) ;
#106 = ORIENTED_EDGE ( 'NONE', *, *, #55, .F. ) ;
#107 = FACE_OUTER_BOUND ( 'NONE', #22, .T. ) ;
#108 = EDGE_CURVE ( 'NONE', #64, #64, #114, .T. ) ;
#109 = ORIENTED_EDGE ( 'NONE', *, *, #108, .T. ) ;
#110 = FACE_OUTER_BOUND ( 'NONE', #95, .T. ) ;
#111 = FACE_OUTER_BOUND ( 'NONE', #56, .T. ) ;
#112 = CC_DESIGN_PERSON_AND_ORGANIZATION_ASSIGNMENT ( #103, #85, ( #96 ) ) ;
#113 = DIRECTION ( 'NONE',  ( -3.491481338843133355E-15, 1.224646799147353207E-16, -1.000000000000000000 ) ) ;
#114 = CIRCLE ( 'NONE', #190, 0.8000000000000009326 ) ;
#115 = CARTESIAN_POINT ( 'NONE',  ( 1.326762908760390423E-13, -4.653657836759941941E-15, 38.00000000000000000 ) ) ;
#116 = EDGE_CURVE ( 'NONE', #45, #45, #91, .T. ) ;
#117 = CC_DESIGN_APPROVAL ( #216, ( #29 ) ) ;
#118 = DATE_TIME_ROLE ( 'creation_date' ) ;
#119 = PERSON_AND_ORGANIZATION ( #49, #182 ) ;
#120 = DATE_AND_TIME ( #185, #181 ) ;
#121 = ADVANCED_FACE ( 'NONE', ( #31, #97 ), #89, .T. ) ;
#122 = EDGE_LOOP ( 'NONE', ( #92 ) ) ;
#123 = ORIENTED_EDGE ( 'NONE', *, *, #108, .F. ) ;
#124 = AXIS2_PLACEMENT_3D ( 'NONE', #73, #43, #26 ) ;
#125 = DIRECTION ( 'NONE',  ( -3.491481338843133355E-15, 1.224646799147353207E-16, -1.000000000000000000 ) ) ;
#126 = ORIENTED_EDGE ( 'NONE', *, *, #21, .T. ) ;
#127 = DIRECTION ( 'NONE',  ( 4.275831445896957731E-31, 1.000000000000000000, 1.224646799147353207E-16 ) ) ;
#128 = APPROVAL_PERSON_ORGANIZATION ( #19, #9, #223 ) ;
#129 = FACE_OUTER_BOUND ( 'NONE', #54, .T. ) ;
#130 = CARTESIAN_POINT ( 'NONE',  ( 1.326762908760390423E-13, 0.7999999999999962697, 38.00000000000000000 ) ) ;
#131 = ADVANCED_FACE ( 'NONE', ( #129 ), #101, .T. ) ;
#132 =( NAMED_UNIT ( * ) SI_UNIT ( $, .STERADIAN. ) SOLID_ANGLE_UNIT ( ) );
#133 = SHAPE_DEFINITION_REPRESENTATION ( #153, #180 ) ;
#134 = PRODUCT_DEFINITION_FORMATION_WITH_SPECIFIED_SOURCE ( 'ANY', '', #93, .NOT_KNOWN. ) ;
#135 = PERSON_AND_ORGANIZATION ( #49, #182 ) ;
#136 = LOCAL_TIME ( 7, 53, 51.00000000000000000, #218 ) ;
#137 = COORDINATED_UNIVERSAL_TIME_OFFSET ( 1, 0, .AHEAD. ) ;
#138 = PERSON_AND_ORGANIZATION_ROLE ( 'creator' ) ;
#139 = DIRECTION ( 'NONE',  ( -3.491481338843133355E-15, 1.224646799147353207E-16, -1.000000000000000000 ) ) ;
#140 = CC_DESIGN_APPROVAL ( #204, ( #96 ) ) ;
#141 = ORIENTED_EDGE ( 'NONE', *, *, #116, .F. ) ;
#142 = CARTESIAN_POINT ( 'NONE',  ( 4.061644676318182681E-14, -1.424633176981281019E-15, 11.63301270189222159 ) ) ;
#143 = CLOSED_SHELL ( 'NONE', ( #131, #37, #149 ) ) ;
#144 = PERSON_AND_ORGANIZATION ( #49, #182 ) ;
#145 = DIRECTION ( 'NONE',  ( 3.491481338843133355E-15, -1.224646799147353207E-16, 1.000000000000000000 ) ) ;
#146 =( NAMED_UNIT ( * ) PLANE_ANGLE_UNIT ( ) SI_UNIT ( $, .RADIAN. ) );
#147 = ADVANCED_FACE ( 'NONE', ( #165, #197 ), #212, .T. ) ;
#148 = CARTESIAN_POINT ( 'NONE',  ( 1.511855768138743091E-15, -5.302876193624585727E-17, 0.4330127018922234616 ) ) ;
#149 = ADVANCED_FACE ( 'NONE', ( #111 ), #196, .T. ) ;
#150 = SECURITY_CLASSIFICATION_LEVEL ( 'unclassified' ) ;
#151 = AXIS2_PLACEMENT_3D ( 'NONE', #81, #145, #63 ) ;
#152 = CALENDAR_DATE ( 2021, 8, 10 ) ;
#153 = PRODUCT_DEFINITION_SHAPE ( 'NONE', 'NONE',  #29 ) ;
#154 = CARTESIAN_POINT ( 'NONE',  ( 1.326762908760390423E-13, -4.653657836759941941E-15, 38.00000000000000000 ) ) ;
#155 = AXIS2_PLACEMENT_3D ( 'NONE', #214, #47, #61 ) ;
#156 = UNCERTAINTY_MEASURE_WITH_UNIT (LENGTH_MEASURE( 1.000000000000000082E-05 ), #215, 'distance_accuracy_value', 'NONE');
#157 = CARTESIAN_POINT ( 'NONE',  ( 1.319779946082704535E-13, -4.629164900776995227E-15, 37.79999999999999716 ) ) ;
#158 = EDGE_LOOP ( 'NONE', ( #205 ) ) ;
#159 = DIRECTION ( 'NONE',  ( -3.491481338843133355E-15, 1.224646799147353207E-16, -1.000000000000000000 ) ) ;
#160 = CARTESIAN_POINT ( 'NONE',  ( 0.0000000000000000000, 0.0000000000000000000, 0.0000000000000000000 ) ) ;
#161 = CARTESIAN_POINT ( 'NONE',  ( 1.319779946082704535E-13, 0.9999999999999963363, 37.79999999999999716 ) ) ;
#162 = PERSON_AND_ORGANIZATION_ROLE ( 'design_owner' ) ;
#163 = CC_DESIGN_APPROVAL ( #9, ( #134 ) ) ;
#164 = APPROVAL_PERSON_ORGANIZATION ( #172, #204, #219 ) ;
#165 = FACE_BOUND ( 'NONE', #42, .T. ) ;
#166 = CC_DESIGN_PERSON_AND_ORGANIZATION_ASSIGNMENT ( #170, #48, ( #29 ) ) ;
#167 = DIRECTION ( 'NONE',  ( -3.491481338843133355E-15, 1.224646799147353207E-16, -1.000000000000000000 ) ) ;
#168 = APPLICATION_CONTEXT ( 'configuration controlled 3d designs of mechanical parts and assemblies' ) ;
#169 = COORDINATED_UNIVERSAL_TIME_OFFSET ( 1, 0, .AHEAD. ) ;
#170 = PERSON_AND_ORGANIZATION ( #49, #182 ) ;
#171 = APPROVAL_STATUS ( 'not_yet_approved' ) ;
#172 = PERSON_AND_ORGANIZATION ( #49, #182 ) ;
#173 = CIRCLE ( 'NONE', #35, 1.000000000000000888 ) ;
#174 = CARTESIAN_POINT ( 'NONE',  ( 0.0000000000000000000, 0.0000000000000000000, 0.0000000000000000000 ) ) ;
#175 = CIRCLE ( 'NONE', #30, 0.9999999999999978906 ) ;
#176 = ORIENTED_EDGE ( 'NONE', *, *, #21, .F. ) ;
#177 = CARTESIAN_POINT ( 'NONE',  ( 1.326762908760390423E-13, 5.999039130647367482E-33, 38.00000000000000000 ) ) ;
#178 = DIRECTION ( 'NONE',  ( 0.0000000000000000000, 1.000000000000000000, 0.0000000000000000000 ) ) ;
#179 = CARTESIAN_POINT ( 'NONE',  ( 0.0000000000000000000, 0.0000000000000000000, 0.0000000000000000000 ) ) ;
#180 = ADVANCED_BREP_SHAPE_REPRESENTATION ( '39040', ( #184, #39, #10 ), #12 ) ;
#181 = LOCAL_TIME ( 7, 53, 51.00000000000000000, #1 ) ;
#182 = ORGANIZATION ( 'UNSPECIFIED', 'UNSPECIFIED', '' ) ;
#183 = DIRECTION ( 'NONE',  ( -5.135813185032639159E-31, -1.000000000000000000, -1.445602896647342121E-16 ) ) ;
#184 = MANIFOLD_SOLID_BREP ( 'Corps-Déplacer/Copier1[1]', #38 ) ;
#185 = CALENDAR_DATE ( 2021, 8, 10 ) ;
#186 = AXIS2_PLACEMENT_3D ( 'NONE', #192, #71, #210 ) ;
#187 = DATE_AND_TIME ( #52, #136 ) ;
#188 = EDGE_CURVE ( 'NONE', #65, #65, #221, .T. ) ;
#189 = CYLINDRICAL_SURFACE ( 'NONE', #78, 0.9999999999999993339 ) ;
#190 = AXIS2_PLACEMENT_3D ( 'NONE', #154, #125, #59 ) ;
#191 = EDGE_LOOP ( 'NONE', ( #126 ) ) ;
#192 = CARTESIAN_POINT ( 'NONE',  ( 3.910459099504309358E-14, -1.371604415045035513E-15, 11.19999999999999929 ) ) ;
#193 = FACE_OUTER_BOUND ( 'NONE', #122, .T. ) ;
#194 = ORIENTED_EDGE ( 'NONE', *, *, #116, .T. ) ;
#195 = MECHANICAL_CONTEXT ( 'NONE', #168, 'mechanical' ) ;
#196 = PLANE ( 'NONE',  #155 ) ;
#197 = FACE_OUTER_BOUND ( 'NONE', #27, .T. ) ;
#198 = DIRECTION ( 'NONE',  ( 3.491481338843133355E-15, -1.224646799147353207E-16, 1.000000000000000000 ) ) ;
#199 = AXIS2_PLACEMENT_3D ( 'NONE', #174, #159, #208 ) ;
#200 = PERSON_AND_ORGANIZATION_ROLE ( 'design_supplier' ) ;
#201 = CC_DESIGN_PERSON_AND_ORGANIZATION_ASSIGNMENT ( #135, #200, ( #134 ) ) ;
#202 = APPROVAL_DATE_TIME ( #69, #216 ) ;
#203 = DATE_AND_TIME ( #152, #57 ) ;
#204 = APPROVAL ( #34, 'UNSPECIFIED' ) ;
#205 = ORIENTED_EDGE ( 'NONE', *, *, #188, .F. ) ;
#206 = EDGE_LOOP ( 'NONE', ( #176 ) ) ;
#207 = CIRCLE ( 'NONE', #186, 0.7499999999999994449 ) ;
#208 = DIRECTION ( 'NONE',  ( 4.275831445896959482E-31, 1.000000000000000000, 1.224646799147353207E-16 ) ) ;
#209 = ORIENTED_EDGE ( 'NONE', *, *, #90, .T. ) ;
#210 = DIRECTION ( 'NONE',  ( 0.0000000000000000000, 1.000000000000000000, 0.0000000000000000000 ) ) ;
#211 = LOCAL_TIME ( 7, 53, 51.00000000000000000, #169 ) ;
#212 = CONICAL_SURFACE ( 'NONE', #151, 0.9999999999999978906, 0.5235987755982939307 ) ;
#213 = DIRECTION ( 'NONE',  ( 0.0000000000000000000, 1.000000000000000000, 0.0000000000000000000 ) ) ;
#214 = CARTESIAN_POINT ( 'NONE',  ( 3.910459099504309358E-14, 5.624099184981941397E-33, 11.19999999999999929 ) ) ;
#215 =( LENGTH_UNIT ( ) NAMED_UNIT ( * ) SI_UNIT ( .MILLI., .METRE. ) );
#216 = APPROVAL ( #20, 'UNSPECIFIED' ) ;
#217 = VERTEX_POINT ( 'NONE', #161 ) ;
#218 = COORDINATED_UNIVERSAL_TIME_OFFSET ( 1, 0, .AHEAD. ) ;
#219 = APPROVAL_ROLE ( '' ) ;
#220 = APPROVAL_PERSON_ORGANIZATION ( #36, #216, #68 ) ;
#221 = CIRCLE ( 'NONE', #62, 0.7499999999999985567 ) ;
#222 = CC_DESIGN_DATE_AND_TIME_ASSIGNMENT ( #120, #53, ( #96 ) ) ;
#223 = APPROVAL_ROLE ( '' ) ;
ENDSEC;
END-ISO-10303-21;
