ISO-10303-21;
HEADER;
FILE_DESCRIPTION (( 'STEP AP203' ),
    '1' );
FILE_NAME ('39039.step',
    '2021-10-08T05:53:50',
    ( '' ),
    ( '' ),
    'SwSTEP 2.0',
    'SolidWorks 2019',
    '' );
FILE_SCHEMA (( 'CONFIG_CONTROL_DESIGN' ));
ENDSEC;

DATA;
#1 = DIRECTION ( 'NONE',  ( -3.491481338843133355E-15, 1.224646799147353207E-16, -1.000000000000000000 ) ) ;
#2 =( NAMED_UNIT ( * ) SI_UNIT ( $, .STERADIAN. ) SOLID_ANGLE_UNIT ( ) );
#3 = CC_DESIGN_DATE_AND_TIME_ASSIGNMENT ( #125, #122, ( #124 ) ) ;
#4 = DATE_AND_TIME ( #41, #38 ) ;
#5 = CALENDAR_DATE ( 2021, 8, 10 ) ;
#6 = UNCERTAINTY_MEASURE_WITH_UNIT (LENGTH_MEASURE( 1.000000000000000082E-05 ), #174, 'distance_accuracy_value', 'NONE');
#7 = PERSON_AND_ORGANIZATION ( #19, #178 ) ;
#8 = AXIS2_PLACEMENT_3D ( 'NONE', #197, #182, #29 ) ;
#9 = PERSON_AND_ORGANIZATION_ROLE ( 'design_owner' ) ;
#10 = EDGE_CURVE ( 'NONE', #115, #115, #23, .T. ) ;
#11 = APPLICATION_CONTEXT ( 'configuration controlled 3d designs of mechanical parts and assemblies' ) ;
#12 = ORIENTED_EDGE ( 'NONE', *, *, #57, .F. ) ;
#13 = ORIENTED_EDGE ( 'NONE', *, *, #100, .F. ) ;
#14 = ORIENTED_EDGE ( 'NONE', *, *, #109, .F. ) ;
#15 = AXIS2_PLACEMENT_3D ( 'NONE', #196, #152, #45 ) ;
#16 = DIRECTION ( 'NONE',  ( 3.491481338843133355E-15, -1.224646799147353207E-16, 1.000000000000000000 ) ) ;
#17 = CARTESIAN_POINT ( 'NONE',  ( 1.047444401652940007E-13, 4.124339402320052999E-33, 30.00000000000000000 ) ) ;
#18 = APPROVAL ( #76, 'UNSPECIFIED' ) ;
#19 = PERSON ( 'UNSPECIFIED', 'UNSPECIFIED', 'UNSPECIFIED', ('UNSPECIFIED'), ('UNSPECIFIED'), ('UNSPECIFIED') ) ;
#20 = CARTESIAN_POINT ( 'NONE',  ( 0.0000000000000000000, 0.0000000000000000000, 0.0000000000000000000 ) ) ;
#21 = VERTEX_POINT ( 'NONE', #33 ) ;
#22 = PERSON_AND_ORGANIZATION ( #19, #178 ) ;
#23 = CIRCLE ( 'NONE', #67, 0.7250000000000005329 ) ;
#24 = CC_DESIGN_PERSON_AND_ORGANIZATION_ASSIGNMENT ( #210, #163, ( #85 ) ) ;
#25 = ORIENTED_EDGE ( 'NONE', *, *, #57, .T. ) ;
#26 = ADVANCED_BREP_SHAPE_REPRESENTATION ( '39039', ( #106, #185, #59 ), #150 ) ;
#27 = AXIS2_PLACEMENT_3D ( 'NONE', #17, #87, #118 ) ;
#28 = ORIENTED_EDGE ( 'NONE', *, *, #10, .F. ) ;
#29 = DIRECTION ( 'NONE',  ( -5.312910191413075204E-31, -1.000000000000000000, -1.495451272393802254E-16 ) ) ;
#30 = CYLINDRICAL_SURFACE ( 'NONE', #129, 0.7249999999999995337 ) ;
#31 = ORIENTED_EDGE ( 'NONE', *, *, #109, .T. ) ;
#32 = FACE_OUTER_BOUND ( 'NONE', #47, .T. ) ;
#33 = CARTESIAN_POINT ( 'NONE',  ( 3.925577657185695617E-14, 0.7499999999999963363, 11.24330127018921921 ) ) ;
#34 = APPLICATION_PROTOCOL_DEFINITION ( 'international standard', 'config_control_design', 1994, #11 ) ;
#35 = AXIS2_PLACEMENT_3D ( 'NONE', #52, #69, #121 ) ;
#36 = DIRECTION ( 'NONE',  ( 4.275831445896959482E-31, 1.000000000000000000, 1.224646799147353207E-16 ) ) ;
#37 = COORDINATED_UNIVERSAL_TIME_OFFSET ( 1, 0, .AHEAD. ) ;
#38 = LOCAL_TIME ( 7, 53, 50.00000000000000000, #147 ) ;
#39 = ADVANCED_FACE ( 'NONE', ( #49, #170 ), #30, .T. ) ;
#40 = DATE_AND_TIME ( #103, #84 ) ;
#41 = CALENDAR_DATE ( 2021, 8, 10 ) ;
#42 = APPROVAL ( #56, 'UNSPECIFIED' ) ;
#43 = PERSON_AND_ORGANIZATION ( #19, #178 ) ;
#44 = FACE_OUTER_BOUND ( 'NONE', #171, .T. ) ;
#45 = DIRECTION ( 'NONE',  ( 0.0000000000000000000, 1.000000000000000000, 0.0000000000000000000 ) ) ;
#46 = APPROVAL_PERSON_ORGANIZATION ( #7, #219, #127 ) ;
#47 = EDGE_LOOP ( 'NONE', ( #112 ) ) ;
#48 = DIRECTION ( 'NONE',  ( 5.312910191413075204E-31, 1.000000000000000000, 1.495451272393802254E-16 ) ) ;
#49 = FACE_OUTER_BOUND ( 'NONE', #81, .T. ) ;
#50 = PLANE ( 'NONE',  #27 ) ;
#51 = FACE_OUTER_BOUND ( 'NONE', #151, .T. ) ;
#52 = CARTESIAN_POINT ( 'NONE',  ( 1.047444401652940007E-13, -3.673940397442059178E-15, 30.00000000000000000 ) ) ;
#53 = VERTEX_POINT ( 'NONE', #68 ) ;
#54 = CLOSED_SHELL ( 'NONE', ( #113, #39, #89 ) ) ;
#55 = DIRECTION ( 'NONE',  ( 0.0000000000000000000, 0.0000000000000000000, 1.000000000000000000 ) ) ;
#56 = APPROVAL_STATUS ( 'not_yet_approved' ) ;
#57 = EDGE_CURVE ( 'NONE', #21, #21, #62, .T. ) ;
#58 = PERSON_AND_ORGANIZATION_ROLE ( 'creator' ) ;
#59 = AXIS2_PLACEMENT_3D ( 'NONE', #206, #55, #193 ) ;
#60 = APPROVAL_ROLE ( '' ) ;
#61 = SECURITY_CLASSIFICATION_LEVEL ( 'unclassified' ) ;
#62 = CIRCLE ( 'NONE', #205, 0.7499999999999977796 ) ;
#63 = CARTESIAN_POINT ( 'NONE',  ( 3.910459099504309358E-14, 5.436629212149216723E-33, 11.19999999999999929 ) ) ;
#64 = ORIENTED_EDGE ( 'NONE', *, *, #223, .T. ) ;
#65 = FACE_OUTER_BOUND ( 'NONE', #82, .T. ) ;
#66 = DIRECTION ( 'NONE',  ( -3.491481338843133355E-15, 1.224646799147353207E-16, -1.000000000000000000 ) ) ;
#67 = AXIS2_PLACEMENT_3D ( 'NONE', #156, #180, #218 ) ;
#68 = CARTESIAN_POINT ( 'NONE',  ( 1.047444401652940007E-13, 0.5499999999999963807, 30.00000000000000000 ) ) ;
#69 = DIRECTION ( 'NONE',  ( -3.491481338843133355E-15, 1.224646799147353207E-16, -1.000000000000000000 ) ) ;
#70 = DIRECTION ( 'NONE',  ( 3.491481338843133355E-15, -1.224646799147353207E-16, 1.000000000000000000 ) ) ;
#71 = AXIS2_PLACEMENT_3D ( 'NONE', #63, #16, #95 ) ;
#72 = PERSON_AND_ORGANIZATION ( #19, #178 ) ;
#73 = PERSON_AND_ORGANIZATION ( #19, #178 ) ;
#74 = APPROVAL_DATE_TIME ( #4, #42 ) ;
#75 = AXIS2_PLACEMENT_3D ( 'NONE', #149, #110, #48 ) ;
#76 = APPROVAL_STATUS ( 'not_yet_approved' ) ;
#77 = PRODUCT ( '39039', '39039', '', ( #192 ) ) ;
#78 = CLOSED_SHELL ( 'NONE', ( #215, #116, #120, #153, #141 ) ) ;
#79 = APPROVAL_PERSON_ORGANIZATION ( #43, #18, #92 ) ;
#80 = CC_DESIGN_PERSON_AND_ORGANIZATION_ASSIGNMENT ( #73, #58, ( #189 ) ) ;
#81 = EDGE_LOOP ( 'NONE', ( #13 ) ) ;
#82 = EDGE_LOOP ( 'NONE', ( #25 ) ) ;
#83 = DIRECTION ( 'NONE',  ( 0.0000000000000000000, 1.000000000000000000, 0.0000000000000000000 ) ) ;
#84 = LOCAL_TIME ( 7, 53, 50.00000000000000000, #37 ) ;
#85 = PRODUCT_DEFINITION_FORMATION_WITH_SPECIFIED_SOURCE ( 'ANY', '', #77, .NOT_KNOWN. ) ;
#86 = DIRECTION ( 'NONE',  ( -3.491481338843133355E-15, 1.224646799147353207E-16, -1.000000000000000000 ) ) ;
#87 = DIRECTION ( 'NONE',  ( -3.491481338843133355E-15, 1.224646799147353207E-16, -1.000000000000000000 ) ) ;
#88 = COORDINATED_UNIVERSAL_TIME_OFFSET ( 1, 0, .AHEAD. ) ;
#89 = ADVANCED_FACE ( 'NONE', ( #44 ), #179, .T. ) ;
#90 = CONICAL_SURFACE ( 'NONE', #107, 0.5500000000000000444, 0.7853981633974512766 ) ;
#91 = PRODUCT_DEFINITION_SHAPE ( 'NONE', 'NONE',  #189 ) ;
#92 = APPROVAL_ROLE ( '' ) ;
#93 = SHAPE_DEFINITION_REPRESENTATION ( #91, #26 ) ;
#94 = AXIS2_PLACEMENT_3D ( 'NONE', #159, #70, #160 ) ;
#95 = DIRECTION ( 'NONE',  ( -4.275831445896958607E-31, -1.000000000000000000, -1.224646799147353207E-16 ) ) ;
#96 = FACE_BOUND ( 'NONE', #199, .T. ) ;
#97 = EDGE_LOOP ( 'NONE', ( #64 ) ) ;
#98 = ORIENTED_EDGE ( 'NONE', *, *, #10, .T. ) ;
#99 = CARTESIAN_POINT ( 'NONE',  ( 1.040461438975253740E-13, 0.7499999999999963363, 29.80000000000000071 ) ) ;
#100 = EDGE_CURVE ( 'NONE', #162, #162, #166, .T. ) ;
#101 = CARTESIAN_POINT ( 'NONE',  ( 3.910459099504309358E-14, 0.7249999999999990896, 11.19999999999999929 ) ) ;
#102 = CARTESIAN_POINT ( 'NONE',  ( 3.910459099504309358E-14, 5.436629212149216723E-33, 11.19999999999999929 ) ) ;
#103 = CALENDAR_DATE ( 2021, 8, 10 ) ;
#104 = CC_DESIGN_APPROVAL ( #18, ( #189 ) ) ;
#105 = APPROVAL_STATUS ( 'not_yet_approved' ) ;
#106 = MANIFOLD_SOLID_BREP ( 'Corps-Déplacer/Copier1[1]', #78 ) ;
#107 = AXIS2_PLACEMENT_3D ( 'NONE', #134, #175, #83 ) ;
#108 = PERSON_AND_ORGANIZATION_ROLE ( 'creator' ) ;
#109 = EDGE_CURVE ( 'NONE', #221, #221, #198, .T. ) ;
#110 = DIRECTION ( 'NONE',  ( -3.491481338843133355E-15, 1.224646799147353207E-16, -1.000000000000000000 ) ) ;
#111 = CARTESIAN_POINT ( 'NONE',  ( 3.925577657185695617E-14, -1.376907291238659748E-15, 11.24330127018921921 ) ) ;
#112 = ORIENTED_EDGE ( 'NONE', *, *, #126, .T. ) ;
#113 = ADVANCED_FACE ( 'NONE', ( #131 ), #190, .T. ) ;
#114 = EDGE_LOOP ( 'NONE', ( #12 ) ) ;
#115 = VERTEX_POINT ( 'NONE', #220 ) ;
#116 = ADVANCED_FACE ( 'NONE', ( #96, #65 ), #222, .T. ) ;
#117 = FACE_OUTER_BOUND ( 'NONE', #114, .T. ) ;
#118 = DIRECTION ( 'NONE',  ( 4.275831445896958607E-31, 1.000000000000000000, 1.224646799147353207E-16 ) ) ;
#119 = DESIGN_CONTEXT ( 'detailed design', #212, 'design' ) ;
#120 = ADVANCED_FACE ( 'NONE', ( #117, #32 ), #137, .T. ) ;
#121 = DIRECTION ( 'NONE',  ( 0.0000000000000000000, 1.000000000000000000, 0.0000000000000000000 ) ) ;
#122 = DATE_TIME_ROLE ( 'classification_date' ) ;
#123 = DATE_AND_TIME ( #211, #135 ) ;
#124 = SECURITY_CLASSIFICATION ( '', '', #61 ) ;
#125 = DATE_AND_TIME ( #5, #209 ) ;
#126 = EDGE_CURVE ( 'NONE', #138, #138, #186, .T. ) ;
#127 = APPROVAL_ROLE ( '' ) ;
#128 = PERSON_AND_ORGANIZATION ( #19, #178 ) ;
#129 = AXIS2_PLACEMENT_3D ( 'NONE', #194, #66, #154 ) ;
#130 = EDGE_LOOP ( 'NONE', ( #133 ) ) ;
#131 = FACE_OUTER_BOUND ( 'NONE', #130, .T. ) ;
#132 = AXIS2_PLACEMENT_3D ( 'NONE', #136, #86, #201 ) ;
#133 = ORIENTED_EDGE ( 'NONE', *, *, #100, .T. ) ;
#134 = CARTESIAN_POINT ( 'NONE',  ( 1.047444401652940007E-13, -3.673940397442059178E-15, 30.00000000000000000 ) ) ;
#135 = LOCAL_TIME ( 7, 53, 50.00000000000000000, #88 ) ;
#136 = CARTESIAN_POINT ( 'NONE',  ( 1.040461438975253740E-13, -3.649447461459112464E-15, 29.80000000000000071 ) ) ;
#137 = CYLINDRICAL_SURFACE ( 'NONE', #155, 0.7499999999999988898 ) ;
#138 = VERTEX_POINT ( 'NONE', #99 ) ;
#139 = PLANE ( 'NONE',  #140 ) ;
#140 = AXIS2_PLACEMENT_3D ( 'NONE', #102, #203, #161 ) ;
#141 = ADVANCED_FACE ( 'NONE', ( #188 ), #50, .F. ) ;
#142 = APPROVAL_DATE_TIME ( #167, #18 ) ;
#143 = DATE_TIME_ROLE ( 'creation_date' ) ;
#144 = PERSON_AND_ORGANIZATION_ROLE ( 'classification_officer' ) ;
#145 = APPROVAL_PERSON_ORGANIZATION ( #22, #42, #60 ) ;
#146 = CALENDAR_DATE ( 2021, 8, 10 ) ;
#147 = COORDINATED_UNIVERSAL_TIME_OFFSET ( 1, 0, .AHEAD. ) ;
#148 = CC_DESIGN_DATE_AND_TIME_ASSIGNMENT ( #123, #143, ( #189 ) ) ;
#149 = CARTESIAN_POINT ( 'NONE',  ( 1.461460575867451352E-15, -5.126113653837098694E-17, 0.4185789451624826185 ) ) ;
#150 =( GEOMETRIC_REPRESENTATION_CONTEXT ( 3 ) GLOBAL_UNCERTAINTY_ASSIGNED_CONTEXT ( ( #6 ) ) GLOBAL_UNIT_ASSIGNED_CONTEXT ( ( #174, #187, #2 ) ) REPRESENTATION_CONTEXT ( 'NONE', 'WORKASPACE' ) );
#151 = EDGE_LOOP ( 'NONE', ( #168 ) ) ;
#152 = DIRECTION ( 'NONE',  ( -3.491481338843133355E-15, 1.224646799147353207E-16, -1.000000000000000000 ) ) ;
#153 = ADVANCED_FACE ( 'NONE', ( #51, #157 ), #90, .T. ) ;
#154 = DIRECTION ( 'NONE',  ( 4.275831445896958607E-31, 1.000000000000000000, 1.224646799147353207E-16 ) ) ;
#155 = AXIS2_PLACEMENT_3D ( 'NONE', #20, #1, #36 ) ;
#156 = CARTESIAN_POINT ( 'NONE',  ( 3.910459099504309358E-14, -1.371604415045035513E-15, 11.19999999999999929 ) ) ;
#157 = FACE_BOUND ( 'NONE', #97, .T. ) ;
#158 = CC_DESIGN_PERSON_AND_ORGANIZATION_ASSIGNMENT ( #128, #144, ( #124 ) ) ;
#159 = CARTESIAN_POINT ( 'NONE',  ( 3.925577657185695617E-14, -1.376907291238659748E-15, 11.24330127018921921 ) ) ;
#160 = DIRECTION ( 'NONE',  ( 0.0000000000000000000, -1.000000000000000000, 0.0000000000000000000 ) ) ;
#161 = DIRECTION ( 'NONE',  ( -4.275831445896958607E-31, -1.000000000000000000, -1.224646799147353207E-16 ) ) ;
#162 = VERTEX_POINT ( 'NONE', #176 ) ;
#163 = PERSON_AND_ORGANIZATION_ROLE ( 'design_supplier' ) ;
#164 = PERSON_AND_ORGANIZATION ( #19, #178 ) ;
#165 = APPLICATION_PROTOCOL_DEFINITION ( 'international standard', 'config_control_design', 1994, #212 ) ;
#166 = CIRCLE ( 'NONE', #75, 0.7249999999999985345 ) ;
#167 = DATE_AND_TIME ( #146, #200 ) ;
#168 = ORIENTED_EDGE ( 'NONE', *, *, #126, .F. ) ;
#169 = CC_DESIGN_APPROVAL ( #42, ( #85 ) ) ;
#170 = FACE_OUTER_BOUND ( 'NONE', #213, .T. ) ;
#171 = EDGE_LOOP ( 'NONE', ( #28 ) ) ;
#172 = CIRCLE ( 'NONE', #35, 0.5500000000000000444 ) ;
#173 = DIRECTION ( 'NONE',  ( 0.0000000000000000000, 1.000000000000000000, 0.0000000000000000000 ) ) ;
#174 =( LENGTH_UNIT ( ) NAMED_UNIT ( * ) SI_UNIT ( .MILLI., .METRE. ) );
#175 = DIRECTION ( 'NONE',  ( -3.491481338843133355E-15, 1.224646799147353207E-16, -1.000000000000000000 ) ) ;
#176 = CARTESIAN_POINT ( 'NONE',  ( 1.461460575867451747E-15, 0.7249999999999985345, 0.4185789451624827295 ) ) ;
#177 = APPROVAL_DATE_TIME ( #40, #219 ) ;
#178 = ORGANIZATION ( 'UNSPECIFIED', 'UNSPECIFIED', '' ) ;
#179 = PLANE ( 'NONE',  #71 ) ;
#180 = DIRECTION ( 'NONE',  ( -3.491481338843133355E-15, 1.224646799147353207E-16, -1.000000000000000000 ) ) ;
#181 = CC_DESIGN_PERSON_AND_ORGANIZATION_ASSIGNMENT ( #164, #108, ( #85 ) ) ;
#182 = DIRECTION ( 'NONE',  ( 3.491481338843133355E-15, -1.224646799147353207E-16, 1.000000000000000000 ) ) ;
#183 = EDGE_LOOP ( 'NONE', ( #216 ) ) ;
#184 = DIRECTION ( 'NONE',  ( -3.491481338843133355E-15, 1.224646799147353207E-16, -1.000000000000000000 ) ) ;
#185 = MANIFOLD_SOLID_BREP ( 'Corps-Déplacer/Copier1[2]', #54 ) ;
#186 = CIRCLE ( 'NONE', #132, 0.7500000000000000000 ) ;
#187 =( NAMED_UNIT ( * ) PLANE_ANGLE_UNIT ( ) SI_UNIT ( $, .RADIAN. ) );
#188 = FACE_OUTER_BOUND ( 'NONE', #183, .T. ) ;
#189 = PRODUCT_DEFINITION ( 'UNKNOWN', '', #85, #119 ) ;
#190 = CONICAL_SURFACE ( 'NONE', #8, 0.7249999999999985345, 1.047197551196592746 ) ;
#191 = COORDINATED_UNIVERSAL_TIME_OFFSET ( 1, 0, .AHEAD. ) ;
#192 = MECHANICAL_CONTEXT ( 'NONE', #11, 'mechanical' ) ;
#193 = DIRECTION ( 'NONE',  ( 1.000000000000000000, 0.0000000000000000000, 0.0000000000000000000 ) ) ;
#194 = CARTESIAN_POINT ( 'NONE',  ( 0.0000000000000000000, 0.0000000000000000000, 0.0000000000000000000 ) ) ;
#195 = PRODUCT_RELATED_PRODUCT_CATEGORY ( 'detail', '', ( #77 ) ) ;
#196 = CARTESIAN_POINT ( 'NONE',  ( 3.910459099504309358E-14, -1.371604415045035513E-15, 11.19999999999999929 ) ) ;
#197 = CARTESIAN_POINT ( 'NONE',  ( 1.461460575867451352E-15, -5.126113653837098694E-17, 0.4185789451624826185 ) ) ;
#198 = CIRCLE ( 'NONE', #15, 0.7250000000000005329 ) ;
#199 = EDGE_LOOP ( 'NONE', ( #14 ) ) ;
#200 = LOCAL_TIME ( 7, 53, 50.00000000000000000, #191 ) ;
#201 = DIRECTION ( 'NONE',  ( 0.0000000000000000000, 1.000000000000000000, 0.0000000000000000000 ) ) ;
#202 = CC_DESIGN_PERSON_AND_ORGANIZATION_ASSIGNMENT ( #72, #9, ( #77 ) ) ;
#203 = DIRECTION ( 'NONE',  ( 3.491481338843133355E-15, -1.224646799147353207E-16, 1.000000000000000000 ) ) ;
#204 = FACE_OUTER_BOUND ( 'NONE', #217, .T. ) ;
#205 = AXIS2_PLACEMENT_3D ( 'NONE', #111, #184, #173 ) ;
#206 = CARTESIAN_POINT ( 'NONE',  ( 0.0000000000000000000, 0.0000000000000000000, 0.0000000000000000000 ) ) ;
#207 = COORDINATED_UNIVERSAL_TIME_OFFSET ( 1, 0, .AHEAD. ) ;
#208 = CC_DESIGN_APPROVAL ( #219, ( #124 ) ) ;
#209 = LOCAL_TIME ( 7, 53, 50.00000000000000000, #207 ) ;
#210 = PERSON_AND_ORGANIZATION ( #19, #178 ) ;
#211 = CALENDAR_DATE ( 2021, 8, 10 ) ;
#212 = APPLICATION_CONTEXT ( 'configuration controlled 3d designs of mechanical parts and assemblies' ) ;
#213 = EDGE_LOOP ( 'NONE', ( #98 ) ) ;
#214 = CC_DESIGN_SECURITY_CLASSIFICATION ( #124, ( #85 ) ) ;
#215 = ADVANCED_FACE ( 'NONE', ( #204 ), #139, .F. ) ;
#216 = ORIENTED_EDGE ( 'NONE', *, *, #223, .F. ) ;
#217 = EDGE_LOOP ( 'NONE', ( #31 ) ) ;
#218 = DIRECTION ( 'NONE',  ( 0.0000000000000000000, 1.000000000000000000, 0.0000000000000000000 ) ) ;
#219 = APPROVAL ( #105, 'UNSPECIFIED' ) ;
#220 = CARTESIAN_POINT ( 'NONE',  ( 3.910459099504309358E-14, 0.7249999999999990896, 11.19999999999999929 ) ) ;
#221 = VERTEX_POINT ( 'NONE', #101 ) ;
#222 = CONICAL_SURFACE ( 'NONE', #94, 0.7499999999999977796, 0.5235987755982802749 ) ;
#223 = EDGE_CURVE ( 'NONE', #53, #53, #172, .T. ) ;
ENDSEC;
END-ISO-10303-21;
