ISO-10303-21;
HEADER;
FILE_DESCRIPTION (( 'STEP AP203' ),
    '1' );
FILE_NAME ('39038.step',
    '2021-10-08T05:53:49',
    ( '' ),
    ( '' ),
    'SwSTEP 2.0',
    'SolidWorks 2019',
    '' );
FILE_SCHEMA (( 'CONFIG_CONTROL_DESIGN' ));
ENDSEC;

DATA;
#1 = PLANE ( 'NONE',  #66 ) ;
#2 = CYLINDRICAL_SURFACE ( 'NONE', #37, 0.7499999999999988898 ) ;
#3 = DIRECTION ( 'NONE',  ( 0.0000000000000000000, 1.000000000000000000, 0.0000000000000000000 ) ) ;
#4 = APPROVAL_ROLE ( '' ) ;
#5 = DATE_AND_TIME ( #196, #98 ) ;
#6 = APPROVAL_DATE_TIME ( #36, #145 ) ;
#7 = PERSON_AND_ORGANIZATION ( #197, #174 ) ;
#8 = AXIS2_PLACEMENT_3D ( 'NONE', #148, #101, #3 ) ;
#9 = EDGE_CURVE ( 'NONE', #150, #150, #138, .T. ) ;
#10 = EDGE_LOOP ( 'NONE', ( #115 ) ) ;
#11 = ORIENTED_EDGE ( 'NONE', *, *, #59, .T. ) ;
#12 = ORIENTED_EDGE ( 'NONE', *, *, #9, .F. ) ;
#13 = ADVANCED_FACE ( 'NONE', ( #103 ), #220, .T. ) ;
#14 = AXIS2_PLACEMENT_3D ( 'NONE', #107, #105, #184 ) ;
#15 = CC_DESIGN_PERSON_AND_ORGANIZATION_ASSIGNMENT ( #60, #177, ( #135 ) ) ;
#16 = DIRECTION ( 'NONE',  ( -3.491481338843133355E-15, 1.224646799147353207E-16, -1.000000000000000000 ) ) ;
#17 = AXIS2_PLACEMENT_3D ( 'NONE', #154, #19, #57 ) ;
#18 = VERTEX_POINT ( 'NONE', #90 ) ;
#19 = DIRECTION ( 'NONE',  ( -3.491481338843133355E-15, 1.224646799147353207E-16, -1.000000000000000000 ) ) ;
#20 = AXIS2_PLACEMENT_3D ( 'NONE', #69, #86, #116 ) ;
#21 = COORDINATED_UNIVERSAL_TIME_OFFSET ( 1, 0, .AHEAD. ) ;
#22 = ADVANCED_BREP_SHAPE_REPRESENTATION ( '39038', ( #30, #34, #88 ), #182 ) ;
#23 = COORDINATED_UNIVERSAL_TIME_OFFSET ( 1, 0, .AHEAD. ) ;
#24 = EDGE_LOOP ( 'NONE', ( #147 ) ) ;
#25 = LOCAL_TIME ( 7, 53, 49.00000000000000000, #144 ) ;
#26 = CIRCLE ( 'NONE', #113, 0.6749999999999990452 ) ;
#27 = PLANE ( 'NONE',  #33 ) ;
#28 = CARTESIAN_POINT ( 'NONE',  ( 3.910459099504309358E-14, 5.061689266483741373E-33, 11.19999999999999929 ) ) ;
#29 = DIRECTION ( 'NONE',  ( 0.0000000000000000000, 1.000000000000000000, 0.0000000000000000000 ) ) ;
#30 = MANIFOLD_SOLID_BREP ( 'Corps-Déplacer/Copier1[1]', #131 ) ;
#31 = VERTEX_POINT ( 'NONE', #104 ) ;
#32 = FACE_OUTER_BOUND ( 'NONE', #24, .T. ) ;
#33 = AXIS2_PLACEMENT_3D ( 'NONE', #28, #85, #50 ) ;
#34 = MANIFOLD_SOLID_BREP ( 'Corps-Déplacer/Copier1[2]', #218 ) ;
#35 = DIRECTION ( 'NONE',  ( 4.275831445896958607E-31, 1.000000000000000000, 1.224646799147353207E-16 ) ) ;
#36 = DATE_AND_TIME ( #189, #25 ) ;
#37 = AXIS2_PLACEMENT_3D ( 'NONE', #170, #16, #72 ) ;
#38 = CC_DESIGN_DATE_AND_TIME_ASSIGNMENT ( #39, #58, ( #80 ) ) ;
#39 = DATE_AND_TIME ( #160, #82 ) ;
#40 = APPROVAL_DATE_TIME ( #94, #136 ) ;
#41 = PERSON_AND_ORGANIZATION ( #197, #174 ) ;
#42 = CONICAL_SURFACE ( 'NONE', #215, 0.6749999999999988232, 1.047197551196592746 ) ;
#43 =( NAMED_UNIT ( * ) SI_UNIT ( $, .STERADIAN. ) SOLID_ANGLE_UNIT ( ) );
#44 = ORIENTED_EDGE ( 'NONE', *, *, #55, .T. ) ;
#45 = DIRECTION ( 'NONE',  ( -3.491481338843133355E-15, 1.224646799147353207E-16, -1.000000000000000000 ) ) ;
#46 = ADVANCED_FACE ( 'NONE', ( #199 ), #27, .F. ) ;
#47 = CC_DESIGN_SECURITY_CLASSIFICATION ( #80, ( #205 ) ) ;
#48 = CC_DESIGN_APPROVAL ( #136, ( #221 ) ) ;
#49 = EDGE_LOOP ( 'NONE', ( #84 ) ) ;
#50 = DIRECTION ( 'NONE',  ( -4.275831445896958607E-31, -1.000000000000000000, -1.224646799147353207E-16 ) ) ;
#51 = EDGE_LOOP ( 'NONE', ( #12 ) ) ;
#52 = CARTESIAN_POINT ( 'NONE',  ( 1.047444401652940007E-13, 0.5499999999999963807, 30.00000000000000000 ) ) ;
#53 = DIRECTION ( 'NONE',  ( 2.853229547240354310E-31, 1.000000000000000000, 1.606225440719268586E-16 ) ) ;
#54 = FACE_BOUND ( 'NONE', #67, .T. ) ;
#55 = EDGE_CURVE ( 'NONE', #31, #31, #152, .T. ) ;
#56 = VERTEX_POINT ( 'NONE', #52 ) ;
#57 = DIRECTION ( 'NONE',  ( 0.0000000000000000000, 1.000000000000000000, 0.0000000000000000000 ) ) ;
#58 = DATE_TIME_ROLE ( 'classification_date' ) ;
#59 = EDGE_CURVE ( 'NONE', #68, #68, #61, .T. ) ;
#60 = PERSON_AND_ORGANIZATION ( #197, #174 ) ;
#61 = CIRCLE ( 'NONE', #20, 0.7500000000000000000 ) ;
#62 = CC_DESIGN_PERSON_AND_ORGANIZATION_ASSIGNMENT ( #190, #156, ( #221 ) ) ;
#63 = PRODUCT_DEFINITION_SHAPE ( 'NONE', 'NONE',  #221 ) ;
#64 = CC_DESIGN_APPROVAL ( #110, ( #205 ) ) ;
#65 = DIRECTION ( 'NONE',  ( -4.275831445896958607E-31, -1.000000000000000000, -1.224646799147353207E-16 ) ) ;
#66 = AXIS2_PLACEMENT_3D ( 'NONE', #168, #118, #134 ) ;
#67 = EDGE_LOOP ( 'NONE', ( #99 ) ) ;
#68 = VERTEX_POINT ( 'NONE', #169 ) ;
#69 = CARTESIAN_POINT ( 'NONE',  ( 1.040461438975253740E-13, -3.649447461459112464E-15, 29.80000000000000071 ) ) ;
#70 = CONICAL_SURFACE ( 'NONE', #17, 0.5500000000000000444, 0.7853981633974512766 ) ;
#71 = DIRECTION ( 'NONE',  ( -3.491481338843133355E-15, 1.224646799147353207E-16, -1.000000000000000000 ) ) ;
#72 = DIRECTION ( 'NONE',  ( 4.275831445896959482E-31, 1.000000000000000000, 1.224646799147353207E-16 ) ) ;
#73 = DIRECTION ( 'NONE',  ( -2.853229547240354310E-31, -1.000000000000000000, -1.606225440719268586E-16 ) ) ;
#74 = AXIS2_PLACEMENT_3D ( 'NONE', #166, #179, #65 ) ;
#75 = PERSON_AND_ORGANIZATION ( #197, #174 ) ;
#76 = PERSON_AND_ORGANIZATION_ROLE ( 'creator' ) ;
#77 = SHAPE_DEFINITION_REPRESENTATION ( #63, #22 ) ;
#78 = PERSON_AND_ORGANIZATION_ROLE ( 'classification_officer' ) ;
#79 = PERSON_AND_ORGANIZATION ( #197, #174 ) ;
#80 = SECURITY_CLASSIFICATION ( '', '', #93 ) ;
#81 = AXIS2_PLACEMENT_3D ( 'NONE', #121, #91, #187 ) ;
#82 = LOCAL_TIME ( 7, 53, 49.00000000000000000, #23 ) ;
#83 = CC_DESIGN_PERSON_AND_ORGANIZATION_ASSIGNMENT ( #7, #78, ( #80 ) ) ;
#84 = ORIENTED_EDGE ( 'NONE', *, *, #9, .T. ) ;
#85 = DIRECTION ( 'NONE',  ( 3.491481338843133355E-15, -1.224646799147353207E-16, 1.000000000000000000 ) ) ;
#86 = DIRECTION ( 'NONE',  ( -3.491481338843133355E-15, 1.224646799147353207E-16, -1.000000000000000000 ) ) ;
#87 = FACE_OUTER_BOUND ( 'NONE', #51, .T. ) ;
#88 = AXIS2_PLACEMENT_3D ( 'NONE', #173, #157, #158 ) ;
#89 = EDGE_CURVE ( 'NONE', #18, #18, #26, .T. ) ;
#90 = CARTESIAN_POINT ( 'NONE',  ( 3.910459099504309358E-14, 0.6749999999999976019, 11.19999999999999929 ) ) ;
#91 = DIRECTION ( 'NONE',  ( -3.491481338843133355E-15, 1.224646799147353207E-16, -1.000000000000000000 ) ) ;
#92 = CALENDAR_DATE ( 2021, 8, 10 ) ;
#93 = SECURITY_CLASSIFICATION_LEVEL ( 'unclassified' ) ;
#94 = DATE_AND_TIME ( #92, #191 ) ;
#95 = ADVANCED_FACE ( 'NONE', ( #207, #203 ), #70, .T. ) ;
#96 = APPROVAL_DATE_TIME ( #211, #110 ) ;
#97 = ORIENTED_EDGE ( 'NONE', *, *, #89, .F. ) ;
#98 = LOCAL_TIME ( 7, 53, 49.00000000000000000, #108 ) ;
#99 = ORIENTED_EDGE ( 'NONE', *, *, #55, .F. ) ;
#100 = EDGE_LOOP ( 'NONE', ( #11 ) ) ;
#101 = DIRECTION ( 'NONE',  ( -3.491481338843133355E-15, 1.224646799147353207E-16, -1.000000000000000000 ) ) ;
#102 = ADVANCED_FACE ( 'NONE', ( #87, #119 ), #2, .T. ) ;
#103 = FACE_OUTER_BOUND ( 'NONE', #180, .T. ) ;
#104 = CARTESIAN_POINT ( 'NONE',  ( 3.910459099504309358E-14, 0.6749999999999976019, 11.19999999999999929 ) ) ;
#105 = DIRECTION ( 'NONE',  ( 3.491481338843133355E-15, -1.224646799147353207E-16, 1.000000000000000000 ) ) ;
#106 = FACE_OUTER_BOUND ( 'NONE', #164, .T. ) ;
#107 = CARTESIAN_POINT ( 'NONE',  ( 3.955814772548470661E-14, -1.387513043625908810E-15, 11.32990381056766438 ) ) ;
#108 = COORDINATED_UNIVERSAL_TIME_OFFSET ( 1, 0, .AHEAD. ) ;
#109 = MECHANICAL_CONTEXT ( 'NONE', #193, 'mechanical' ) ;
#110 = APPROVAL ( #213, 'UNSPECIFIED' ) ;
#111 = ORIENTED_EDGE ( 'NONE', *, *, #178, .F. ) ;
#112 = ORIENTED_EDGE ( 'NONE', *, *, #89, .T. ) ;
#113 = AXIS2_PLACEMENT_3D ( 'NONE', #130, #71, #155 ) ;
#114 = ADVANCED_FACE ( 'NONE', ( #106 ), #42, .T. ) ;
#115 = ORIENTED_EDGE ( 'NONE', *, *, #178, .T. ) ;
#116 = DIRECTION ( 'NONE',  ( 0.0000000000000000000, 1.000000000000000000, 0.0000000000000000000 ) ) ;
#117 = CC_DESIGN_PERSON_AND_ORGANIZATION_ASSIGNMENT ( #75, #139, ( #205 ) ) ;
#118 = DIRECTION ( 'NONE',  ( -3.491481338843133355E-15, 1.224646799147353207E-16, -1.000000000000000000 ) ) ;
#119 = FACE_OUTER_BOUND ( 'NONE', #100, .T. ) ;
#120 = VERTEX_POINT ( 'NONE', #183 ) ;
#121 = CARTESIAN_POINT ( 'NONE',  ( 1.047444401652940007E-13, -3.673940397442059178E-15, 30.00000000000000000 ) ) ;
#122 = APPROVAL_STATUS ( 'not_yet_approved' ) ;
#123 = LOCAL_TIME ( 7, 53, 49.00000000000000000, #21 ) ;
#124 = UNCERTAINTY_MEASURE_WITH_UNIT (LENGTH_MEASURE( 1.000000000000000082E-05 ), #167, 'distance_accuracy_value', 'NONE');
#125 = APPROVAL_ROLE ( '' ) ;
#126 = EDGE_LOOP ( 'NONE', ( #112 ) ) ;
#127 = AXIS2_PLACEMENT_3D ( 'NONE', #206, #172, #53 ) ;
#128 = ADVANCED_FACE ( 'NONE', ( #132 ), #1, .F. ) ;
#129 = ORIENTED_EDGE ( 'NONE', *, *, #59, .F. ) ;
#130 = CARTESIAN_POINT ( 'NONE',  ( 3.910459099504309358E-14, -1.371604415045035513E-15, 11.19999999999999929 ) ) ;
#131 = CLOSED_SHELL ( 'NONE', ( #46, #195, #102, #95, #128 ) ) ;
#132 = FACE_OUTER_BOUND ( 'NONE', #202, .T. ) ;
#133 = FACE_OUTER_BOUND ( 'NONE', #126, .T. ) ;
#134 = DIRECTION ( 'NONE',  ( 4.275831445896958607E-31, 1.000000000000000000, 1.224646799147353207E-16 ) ) ;
#135 = PRODUCT ( '39038', '39038', '', ( #109 ) ) ;
#136 = APPROVAL ( #192, 'UNSPECIFIED' ) ;
#137 = CYLINDRICAL_SURFACE ( 'NONE', #209, 0.6749999999999989342 ) ;
#138 = CIRCLE ( 'NONE', #159, 0.7499999999999977796 ) ;
#139 = PERSON_AND_ORGANIZATION_ROLE ( 'design_supplier' ) ;
#140 = COORDINATED_UNIVERSAL_TIME_OFFSET ( 1, 0, .AHEAD. ) ;
#141 = APPLICATION_PROTOCOL_DEFINITION ( 'international standard', 'config_control_design', 1994, #193 ) ;
#142 = APPROVAL_PERSON_ORGANIZATION ( #214, #110, #4 ) ;
#143 = APPROVAL_ROLE ( '' ) ;
#144 = COORDINATED_UNIVERSAL_TIME_OFFSET ( 1, 0, .AHEAD. ) ;
#145 = APPROVAL ( #122, 'UNSPECIFIED' ) ;
#146 = CONICAL_SURFACE ( 'NONE', #14, 0.7499999999999977796, 0.5235987755982972613 ) ;
#147 = ORIENTED_EDGE ( 'NONE', *, *, #216, .F. ) ;
#148 = CARTESIAN_POINT ( 'NONE',  ( 3.910459099504309358E-14, -1.371604415045035513E-15, 11.19999999999999929 ) ) ;
#149 = CC_DESIGN_DATE_AND_TIME_ASSIGNMENT ( #5, #175, ( #221 ) ) ;
#150 = VERTEX_POINT ( 'NONE', #222 ) ;
#151 =( NAMED_UNIT ( * ) PLANE_ANGLE_UNIT ( ) SI_UNIT ( $, .RADIAN. ) );
#152 = CIRCLE ( 'NONE', #8, 0.6749999999999990452 ) ;
#153 = CARTESIAN_POINT ( 'NONE',  ( 1.360670191324869058E-15, -4.772588574262127709E-17, 0.3897114317030012098 ) ) ;
#154 = CARTESIAN_POINT ( 'NONE',  ( 1.047444401652940007E-13, -3.673940397442059178E-15, 30.00000000000000000 ) ) ;
#155 = DIRECTION ( 'NONE',  ( 0.0000000000000000000, 1.000000000000000000, 0.0000000000000000000 ) ) ;
#156 = PERSON_AND_ORGANIZATION_ROLE ( 'creator' ) ;
#157 = DIRECTION ( 'NONE',  ( 0.0000000000000000000, 0.0000000000000000000, 1.000000000000000000 ) ) ;
#158 = DIRECTION ( 'NONE',  ( 1.000000000000000000, 0.0000000000000000000, 0.0000000000000000000 ) ) ;
#159 = AXIS2_PLACEMENT_3D ( 'NONE', #181, #45, #29 ) ;
#160 = CALENDAR_DATE ( 2021, 8, 10 ) ;
#161 = EDGE_LOOP ( 'NONE', ( #44 ) ) ;
#162 = CC_DESIGN_APPROVAL ( #145, ( #80 ) ) ;
#163 = ORIENTED_EDGE ( 'NONE', *, *, #216, .T. ) ;
#164 = EDGE_LOOP ( 'NONE', ( #163 ) ) ;
#165 = APPROVAL_PERSON_ORGANIZATION ( #41, #136, #125 ) ;
#166 = CARTESIAN_POINT ( 'NONE',  ( 3.910459099504309358E-14, 5.061689266483741373E-33, 11.19999999999999929 ) ) ;
#167 =( LENGTH_UNIT ( ) NAMED_UNIT ( * ) SI_UNIT ( .MILLI., .METRE. ) );
#168 = CARTESIAN_POINT ( 'NONE',  ( 1.047444401652940007E-13, 4.124339402320052999E-33, 30.00000000000000000 ) ) ;
#169 = CARTESIAN_POINT ( 'NONE',  ( 1.040461438975253740E-13, 0.7499999999999963363, 29.80000000000000071 ) ) ;
#170 = CARTESIAN_POINT ( 'NONE',  ( 0.0000000000000000000, 0.0000000000000000000, 0.0000000000000000000 ) ) ;
#171 = DESIGN_CONTEXT ( 'detailed design', #212, 'design' ) ;
#172 = DIRECTION ( 'NONE',  ( -3.491481338843133355E-15, 1.224646799147353207E-16, -1.000000000000000000 ) ) ;
#173 = CARTESIAN_POINT ( 'NONE',  ( 0.0000000000000000000, 0.0000000000000000000, 0.0000000000000000000 ) ) ;
#174 = ORGANIZATION ( 'UNSPECIFIED', 'UNSPECIFIED', '' ) ;
#175 = DATE_TIME_ROLE ( 'creation_date' ) ;
#176 = PERSON_AND_ORGANIZATION ( #197, #174 ) ;
#177 = PERSON_AND_ORGANIZATION_ROLE ( 'design_owner' ) ;
#178 = EDGE_CURVE ( 'NONE', #56, #56, #185, .T. ) ;
#179 = DIRECTION ( 'NONE',  ( 3.491481338843133355E-15, -1.224646799147353207E-16, 1.000000000000000000 ) ) ;
#180 = EDGE_LOOP ( 'NONE', ( #97 ) ) ;
#181 = CARTESIAN_POINT ( 'NONE',  ( 3.955814772548470661E-14, -1.387513043625908810E-15, 11.32990381056766438 ) ) ;
#182 =( GEOMETRIC_REPRESENTATION_CONTEXT ( 3 ) GLOBAL_UNCERTAINTY_ASSIGNED_CONTEXT ( ( #124 ) ) GLOBAL_UNIT_ASSIGNED_CONTEXT ( ( #167, #151, #43 ) ) REPRESENTATION_CONTEXT ( 'NONE', 'WORKASPACE' ) );
#183 = CARTESIAN_POINT ( 'NONE',  ( 1.360670191324869255E-15, 0.6749999999999988232, 0.3897114317030013209 ) ) ;
#184 = DIRECTION ( 'NONE',  ( 0.0000000000000000000, -1.000000000000000000, 0.0000000000000000000 ) ) ;
#185 = CIRCLE ( 'NONE', #81, 0.5500000000000000444 ) ;
#186 = DIRECTION ( 'NONE',  ( 3.491481338843133355E-15, -1.224646799147353207E-16, 1.000000000000000000 ) ) ;
#187 = DIRECTION ( 'NONE',  ( 0.0000000000000000000, 1.000000000000000000, 0.0000000000000000000 ) ) ;
#188 = ADVANCED_FACE ( 'NONE', ( #32, #133 ), #137, .T. ) ;
#189 = CALENDAR_DATE ( 2021, 8, 10 ) ;
#190 = PERSON_AND_ORGANIZATION ( #197, #174 ) ;
#191 = LOCAL_TIME ( 7, 53, 49.00000000000000000, #140 ) ;
#192 = APPROVAL_STATUS ( 'not_yet_approved' ) ;
#193 = APPLICATION_CONTEXT ( 'configuration controlled 3d designs of mechanical parts and assemblies' ) ;
#194 = CALENDAR_DATE ( 2021, 8, 10 ) ;
#195 = ADVANCED_FACE ( 'NONE', ( #54, #223 ), #146, .T. ) ;
#196 = CALENDAR_DATE ( 2021, 8, 10 ) ;
#197 = PERSON ( 'UNSPECIFIED', 'UNSPECIFIED', 'UNSPECIFIED', ('UNSPECIFIED'), ('UNSPECIFIED'), ('UNSPECIFIED') ) ;
#198 = CC_DESIGN_PERSON_AND_ORGANIZATION_ASSIGNMENT ( #176, #76, ( #205 ) ) ;
#199 = FACE_OUTER_BOUND ( 'NONE', #161, .T. ) ;
#200 = EDGE_LOOP ( 'NONE', ( #129 ) ) ;
#201 = CIRCLE ( 'NONE', #127, 0.6749999999999988232 ) ;
#202 = EDGE_LOOP ( 'NONE', ( #111 ) ) ;
#203 = FACE_BOUND ( 'NONE', #10, .T. ) ;
#204 = APPROVAL_PERSON_ORGANIZATION ( #79, #145, #143 ) ;
#205 = PRODUCT_DEFINITION_FORMATION_WITH_SPECIFIED_SOURCE ( 'ANY', '', #135, .NOT_KNOWN. ) ;
#206 = CARTESIAN_POINT ( 'NONE',  ( 1.360670191324869058E-15, -4.772588574262127709E-17, 0.3897114317030012098 ) ) ;
#207 = FACE_OUTER_BOUND ( 'NONE', #200, .T. ) ;
#208 = DIRECTION ( 'NONE',  ( -3.491481338843133355E-15, 1.224646799147353207E-16, -1.000000000000000000 ) ) ;
#209 = AXIS2_PLACEMENT_3D ( 'NONE', #210, #208, #35 ) ;
#210 = CARTESIAN_POINT ( 'NONE',  ( 0.0000000000000000000, 0.0000000000000000000, 0.0000000000000000000 ) ) ;
#211 = DATE_AND_TIME ( #194, #123 ) ;
#212 = APPLICATION_CONTEXT ( 'configuration controlled 3d designs of mechanical parts and assemblies' ) ;
#213 = APPROVAL_STATUS ( 'not_yet_approved' ) ;
#214 = PERSON_AND_ORGANIZATION ( #197, #174 ) ;
#215 = AXIS2_PLACEMENT_3D ( 'NONE', #153, #186, #73 ) ;
#216 = EDGE_CURVE ( 'NONE', #120, #120, #201, .T. ) ;
#217 = APPLICATION_PROTOCOL_DEFINITION ( 'international standard', 'config_control_design', 1994, #212 ) ;
#218 = CLOSED_SHELL ( 'NONE', ( #114, #188, #13 ) ) ;
#219 = PRODUCT_RELATED_PRODUCT_CATEGORY ( 'detail', '', ( #135 ) ) ;
#220 = PLANE ( 'NONE',  #74 ) ;
#221 = PRODUCT_DEFINITION ( 'UNKNOWN', '', #205, #171 ) ;
#222 = CARTESIAN_POINT ( 'NONE',  ( 3.955814772548470661E-14, 0.7499999999999963363, 11.32990381056766438 ) ) ;
#223 = FACE_OUTER_BOUND ( 'NONE', #49, .T. ) ;
ENDSEC;
END-ISO-10303-21;
