ISO-10303-21;
HEADER;
FILE_DESCRIPTION (( 'STEP AP203' ),
    '1' );
FILE_NAME ('39037.step',
    '2021-10-08T05:53:49',
    ( '' ),
    ( '' ),
    'SwSTEP 2.0',
    'SolidWorks 2019',
    '' );
FILE_SCHEMA (( 'CONFIG_CONTROL_DESIGN' ));
ENDSEC;

DATA;
#1 = PERSON_AND_ORGANIZATION_ROLE ( 'design_supplier' ) ;
#2 = SECURITY_CLASSIFICATION_LEVEL ( 'unclassified' ) ;
#3 = CARTESIAN_POINT ( 'NONE',  ( 1.047444401652940007E-13, -3.673940397442059178E-15, 30.00000000000000000 ) ) ;
#4 = CARTESIAN_POINT ( 'NONE',  ( 3.567074127250069701E-14, -1.251161180115475812E-15, 10.21650635094610848 ) ) ;
#5 = DIRECTION ( 'NONE',  ( -3.491481338843133355E-15, 1.224646799147353207E-16, -1.000000000000000000 ) ) ;
#6 = ORIENTED_EDGE ( 'NONE', *, *, #153, .T. ) ;
#7 = CIRCLE ( 'NONE', #118, 0.6249999999999995559 ) ;
#8 = VERTEX_POINT ( 'NONE', #60 ) ;
#9 = APPROVAL ( #185, 'UNSPECIFIED' ) ;
#10 = DATE_AND_TIME ( #59, #197 ) ;
#11 = PERSON_AND_ORGANIZATION ( #98, #215 ) ;
#12 = APPROVAL ( #151, 'UNSPECIFIED' ) ;
#13 = VERTEX_POINT ( 'NONE', #63 ) ;
#14 = ORIENTED_EDGE ( 'NONE', *, *, #209, .T. ) ;
#15 = AXIS2_PLACEMENT_3D ( 'NONE', #79, #143, #158 ) ;
#16 = EDGE_LOOP ( 'NONE', ( #6 ) ) ;
#17 = ORIENTED_EDGE ( 'NONE', *, *, #90, .T. ) ;
#18 = CLOSED_SHELL ( 'NONE', ( #221, #131, #109 ) ) ;
#19 = DIRECTION ( 'NONE',  ( -3.491481338843133355E-15, 1.224646799147353207E-16, -1.000000000000000000 ) ) ;
#20 = CYLINDRICAL_SURFACE ( 'NONE', #106, 0.7499999999999987788 ) ;
#21 = DIRECTION ( 'NONE',  ( -3.491481338843133355E-15, 1.224646799147353207E-16, -1.000000000000000000 ) ) ;
#22 = FACE_OUTER_BOUND ( 'NONE', #222, .T. ) ;
#23 = APPROVAL ( #135, 'UNSPECIFIED' ) ;
#24 = FACE_OUTER_BOUND ( 'NONE', #170, .T. ) ;
#25 = AXIS2_PLACEMENT_3D ( 'NONE', #77, #173, #200 ) ;
#26 = PERSON_AND_ORGANIZATION ( #98, #215 ) ;
#27 = APPROVAL_ROLE ( '' ) ;
#28 = COORDINATED_UNIVERSAL_TIME_OFFSET ( 1, 0, .AHEAD. ) ;
#29 = CARTESIAN_POINT ( 'NONE',  ( 0.0000000000000000000, 0.0000000000000000000, 0.0000000000000000000 ) ) ;
#30 = EDGE_LOOP ( 'NONE', ( #72 ) ) ;
#31 = COORDINATED_UNIVERSAL_TIME_OFFSET ( 1, 0, .AHEAD. ) ;
#32 = ORIENTED_EDGE ( 'NONE', *, *, #153, .F. ) ;
#33 = MANIFOLD_SOLID_BREP ( 'Corps-Déplacer/Copier1[1]', #192 ) ;
#34 = CARTESIAN_POINT ( 'NONE',  ( 0.0000000000000000000, 0.0000000000000000000, 0.0000000000000000000 ) ) ;
#35 = DESIGN_CONTEXT ( 'detailed design', #116, 'design' ) ;
#36 = AXIS2_PLACEMENT_3D ( 'NONE', #178, #208, #141 ) ;
#37 = FACE_OUTER_BOUND ( 'NONE', #38, .T. ) ;
#38 = EDGE_LOOP ( 'NONE', ( #68 ) ) ;
#39 = DIRECTION ( 'NONE',  ( -3.491481338843133355E-15, 1.224646799147353207E-16, -1.000000000000000000 ) ) ;
#40 = CARTESIAN_POINT ( 'NONE',  ( 3.491481338843133355E-14, -1.224646799147353256E-15, 10.00000000000000000 ) ) ;
#41 = APPROVAL_DATE_TIME ( #201, #12 ) ;
#42 = PRODUCT_RELATED_PRODUCT_CATEGORY ( 'detail', '', ( #169 ) ) ;
#43 =( LENGTH_UNIT ( ) NAMED_UNIT ( * ) SI_UNIT ( .MILLI., .METRE. ) );
#44 = PERSON_AND_ORGANIZATION ( #98, #215 ) ;
#45 = DIRECTION ( 'NONE',  ( 0.0000000000000000000, 0.0000000000000000000, 1.000000000000000000 ) ) ;
#46 = ORIENTED_EDGE ( 'NONE', *, *, #213, .T. ) ;
#47 = PRODUCT_DEFINITION ( 'UNKNOWN', '', #50, #35 ) ;
#48 = PERSON_AND_ORGANIZATION ( #98, #215 ) ;
#49 = AXIS2_PLACEMENT_3D ( 'NONE', #111, #180, #162 ) ;
#50 = PRODUCT_DEFINITION_FORMATION_WITH_SPECIFIED_SOURCE ( 'ANY', '', #169, .NOT_KNOWN. ) ;
#51 = FACE_OUTER_BOUND ( 'NONE', #191, .T. ) ;
#52 = FACE_OUTER_BOUND ( 'NONE', #30, .T. ) ;
#53 = APPROVAL_PERSON_ORGANIZATION ( #48, #23, #120 ) ;
#54 = PLANE ( 'NONE',  #188 ) ;
#55 = ADVANCED_BREP_SHAPE_REPRESENTATION ( '39037', ( #33, #187, #155 ), #219 ) ;
#56 = FACE_BOUND ( 'NONE', #124, .T. ) ;
#57 = FACE_OUTER_BOUND ( 'NONE', #205, .T. ) ;
#58 = CIRCLE ( 'NONE', #15, 0.7500000000000000000 ) ;
#59 = CALENDAR_DATE ( 2021, 8, 10 ) ;
#60 = CARTESIAN_POINT ( 'NONE',  ( 1.259879806782286172E-15, 0.6249999999999987788, 0.3608439182435196346 ) ) ;
#61 = CARTESIAN_POINT ( 'NONE',  ( 3.491481338843133355E-14, 0.6249999999999983347, 10.00000000000000000 ) ) ;
#62 = AXIS2_PLACEMENT_3D ( 'NONE', #64, #167, #97 ) ;
#63 = CARTESIAN_POINT ( 'NONE',  ( 1.047444401652940007E-13, 0.5499999999999963807, 30.00000000000000000 ) ) ;
#64 = CARTESIAN_POINT ( 'NONE',  ( 1.259879806782285975E-15, -4.419063494687154875E-17, 0.3608439182435195791 ) ) ;
#65 = PRODUCT_DEFINITION_SHAPE ( 'NONE', 'NONE',  #47 ) ;
#66 = PERSON_AND_ORGANIZATION_ROLE ( 'classification_officer' ) ;
#67 = AXIS2_PLACEMENT_3D ( 'NONE', #3, #114, #211 ) ;
#68 = ORIENTED_EDGE ( 'NONE', *, *, #90, .F. ) ;
#69 = CC_DESIGN_PERSON_AND_ORGANIZATION_ASSIGNMENT ( #154, #1, ( #50 ) ) ;
#70 = CC_DESIGN_DATE_AND_TIME_ASSIGNMENT ( #190, #136, ( #149 ) ) ;
#71 = AXIS2_PLACEMENT_3D ( 'NONE', #127, #21, #142 ) ;
#72 = ORIENTED_EDGE ( 'NONE', *, *, #122, .T. ) ;
#73 = DIRECTION ( 'NONE',  ( 4.275831445896959482E-31, 1.000000000000000000, 1.224646799147353207E-16 ) ) ;
#74 = EDGE_LOOP ( 'NONE', ( #137 ) ) ;
#75 = CONICAL_SURFACE ( 'NONE', #123, 0.7499999999999976685, 0.5235987755982934866 ) ;
#76 = CC_DESIGN_APPROVAL ( #12, ( #50 ) ) ;
#77 = CARTESIAN_POINT ( 'NONE',  ( 3.567074127250069701E-14, -1.251161180115475812E-15, 10.21650635094610848 ) ) ;
#78 = DIRECTION ( 'NONE',  ( 0.0000000000000000000, 1.000000000000000000, 0.0000000000000000000 ) ) ;
#79 = CARTESIAN_POINT ( 'NONE',  ( 1.040461438975253740E-13, -3.649447461459112464E-15, 29.80000000000000071 ) ) ;
#80 = CIRCLE ( 'NONE', #36, 0.6249999999999987788 ) ;
#81 = PERSON_AND_ORGANIZATION ( #98, #215 ) ;
#82 = UNCERTAINTY_MEASURE_WITH_UNIT (LENGTH_MEASURE( 1.000000000000000082E-05 ), #43, 'distance_accuracy_value', 'NONE');
#83 = CC_DESIGN_PERSON_AND_ORGANIZATION_ASSIGNMENT ( #81, #183, ( #47 ) ) ;
#84 = DATE_AND_TIME ( #193, #92 ) ;
#85 = CC_DESIGN_APPROVAL ( #23, ( #149 ) ) ;
#86 = EDGE_LOOP ( 'NONE', ( #105 ) ) ;
#87 = ADVANCED_FACE ( 'NONE', ( #212, #24 ), #20, .T. ) ;
#88 = DIRECTION ( 'NONE',  ( 0.0000000000000000000, 1.000000000000000000, 0.0000000000000000000 ) ) ;
#89 = DIRECTION ( 'NONE',  ( 0.0000000000000000000, -1.000000000000000000, 0.0000000000000000000 ) ) ;
#90 = EDGE_CURVE ( 'NONE', #165, #165, #7, .T. ) ;
#91 = DIRECTION ( 'NONE',  ( 3.491481338843133355E-15, -1.224646799147353207E-16, 1.000000000000000000 ) ) ;
#92 = LOCAL_TIME ( 7, 53, 49.00000000000000000, #31 ) ;
#93 = DIRECTION ( 'NONE',  ( 0.0000000000000000000, 1.000000000000000000, 0.0000000000000000000 ) ) ;
#94 = CARTESIAN_POINT ( 'NONE',  ( 1.047444401652940007E-13, -3.673940397442059178E-15, 30.00000000000000000 ) ) ;
#95 = VERTEX_POINT ( 'NONE', #134 ) ;
#96 = APPROVAL_PERSON_ORGANIZATION ( #11, #12, #220 ) ;
#97 = DIRECTION ( 'NONE',  ( -3.081487911019583496E-31, -1.000000000000000000, -8.673617379884052728E-17 ) ) ;
#98 = PERSON ( 'UNSPECIFIED', 'UNSPECIFIED', 'UNSPECIFIED', ('UNSPECIFIED'), ('UNSPECIFIED'), ('UNSPECIFIED') ) ;
#99 = COORDINATED_UNIVERSAL_TIME_OFFSET ( 1, 0, .AHEAD. ) ;
#100 = DATE_TIME_ROLE ( 'creation_date' ) ;
#101 = CONICAL_SURFACE ( 'NONE', #67, 0.5500000000000000444, 0.7853981633974512766 ) ;
#102 = CALENDAR_DATE ( 2021, 8, 10 ) ;
#103 = CONICAL_SURFACE ( 'NONE', #62, 0.6249999999999987788, 1.047197551196592746 ) ;
#104 = COORDINATED_UNIVERSAL_TIME_OFFSET ( 1, 0, .AHEAD. ) ;
#105 = ORIENTED_EDGE ( 'NONE', *, *, #122, .F. ) ;
#106 = AXIS2_PLACEMENT_3D ( 'NONE', #126, #174, #73 ) ;
#107 = FACE_BOUND ( 'NONE', #195, .T. ) ;
#108 = CC_DESIGN_APPROVAL ( #9, ( #47 ) ) ;
#109 = ADVANCED_FACE ( 'NONE', ( #37 ), #54, .T. ) ;
#110 = DIRECTION ( 'NONE',  ( 4.275831445896959482E-31, 1.000000000000000000, 1.224646799147353207E-16 ) ) ;
#111 = CARTESIAN_POINT ( 'NONE',  ( 3.491481338843133355E-14, 4.686749320818284498E-33, 10.00000000000000000 ) ) ;
#112 = FACE_OUTER_BOUND ( 'NONE', #74, .T. ) ;
#113 = LOCAL_TIME ( 7, 53, 49.00000000000000000, #168 ) ;
#114 = DIRECTION ( 'NONE',  ( -3.491481338843133355E-15, 1.224646799147353207E-16, -1.000000000000000000 ) ) ;
#115 = PERSON_AND_ORGANIZATION ( #98, #215 ) ;
#116 = APPLICATION_CONTEXT ( 'configuration controlled 3d designs of mechanical parts and assemblies' ) ;
#117 = APPROVAL_DATE_TIME ( #10, #9 ) ;
#118 = AXIS2_PLACEMENT_3D ( 'NONE', #207, #39, #93 ) ;
#119 = DIRECTION ( 'NONE',  ( 1.000000000000000000, 0.0000000000000000000, 0.0000000000000000000 ) ) ;
#120 = APPROVAL_ROLE ( '' ) ;
#121 = CYLINDRICAL_SURFACE ( 'NONE', #177, 0.6249999999999992228 ) ;
#122 = EDGE_CURVE ( 'NONE', #8, #8, #80, .T. ) ;
#123 = AXIS2_PLACEMENT_3D ( 'NONE', #4, #161, #89 ) ;
#124 = EDGE_LOOP ( 'NONE', ( #46 ) ) ;
#125 = DIRECTION ( 'NONE',  ( -3.491481338843133355E-15, 1.224646799147353207E-16, -1.000000000000000000 ) ) ;
#126 = CARTESIAN_POINT ( 'NONE',  ( 0.0000000000000000000, 0.0000000000000000000, 0.0000000000000000000 ) ) ;
#127 = CARTESIAN_POINT ( 'NONE',  ( 1.047444401652940007E-13, 4.124339402320052999E-33, 30.00000000000000000 ) ) ;
#128 = ADVANCED_FACE ( 'NONE', ( #112, #56 ), #101, .T. ) ;
#129 = CALENDAR_DATE ( 2021, 8, 10 ) ;
#130 = VERTEX_POINT ( 'NONE', #132 ) ;
#131 = ADVANCED_FACE ( 'NONE', ( #160, #51 ), #121, .T. ) ;
#132 = CARTESIAN_POINT ( 'NONE',  ( 1.040461438975253740E-13, 0.7499999999999963363, 29.80000000000000071 ) ) ;
#133 =( NAMED_UNIT ( * ) PLANE_ANGLE_UNIT ( ) SI_UNIT ( $, .RADIAN. ) );
#134 = CARTESIAN_POINT ( 'NONE',  ( 3.491481338843133355E-14, 0.6249999999999983347, 10.00000000000000000 ) ) ;
#135 = APPROVAL_STATUS ( 'not_yet_approved' ) ;
#136 = DATE_TIME_ROLE ( 'classification_date' ) ;
#137 = ORIENTED_EDGE ( 'NONE', *, *, #146, .F. ) ;
#138 = ADVANCED_FACE ( 'NONE', ( #107, #22 ), #75, .T. ) ;
#139 = CARTESIAN_POINT ( 'NONE',  ( 3.491481338843133355E-14, 4.686749320818284498E-33, 10.00000000000000000 ) ) ;
#140 = CIRCLE ( 'NONE', #196, 0.6249999999999995559 ) ;
#141 = DIRECTION ( 'NONE',  ( 3.081487911019583496E-31, 1.000000000000000000, 8.673617379884052728E-17 ) ) ;
#142 = DIRECTION ( 'NONE',  ( 4.275831445896958607E-31, 1.000000000000000000, 1.224646799147353207E-16 ) ) ;
#143 = DIRECTION ( 'NONE',  ( -3.491481338843133355E-15, 1.224646799147353207E-16, -1.000000000000000000 ) ) ;
#144 = APPLICATION_PROTOCOL_DEFINITION ( 'international standard', 'config_control_design', 1994, #116 ) ;
#145 =( NAMED_UNIT ( * ) SI_UNIT ( $, .STERADIAN. ) SOLID_ANGLE_UNIT ( ) );
#146 = EDGE_CURVE ( 'NONE', #130, #130, #58, .T. ) ;
#147 = VERTEX_POINT ( 'NONE', #148 ) ;
#148 = CARTESIAN_POINT ( 'NONE',  ( 3.567074127250069701E-14, 0.7499999999999963363, 10.21650635094610848 ) ) ;
#149 = SECURITY_CLASSIFICATION ( '', '', #2 ) ;
#150 = CC_DESIGN_PERSON_AND_ORGANIZATION_ASSIGNMENT ( #189, #66, ( #149 ) ) ;
#151 = APPROVAL_STATUS ( 'not_yet_approved' ) ;
#152 = CIRCLE ( 'NONE', #202, 0.5500000000000000444 ) ;
#153 = EDGE_CURVE ( 'NONE', #95, #95, #140, .T. ) ;
#154 = PERSON_AND_ORGANIZATION ( #98, #215 ) ;
#155 = AXIS2_PLACEMENT_3D ( 'NONE', #29, #45, #119 ) ;
#156 = ORIENTED_EDGE ( 'NONE', *, *, #213, .F. ) ;
#157 = ORIENTED_EDGE ( 'NONE', *, *, #146, .T. ) ;
#158 = DIRECTION ( 'NONE',  ( 0.0000000000000000000, 1.000000000000000000, 0.0000000000000000000 ) ) ;
#159 = CIRCLE ( 'NONE', #25, 0.7499999999999976685 ) ;
#160 = FACE_OUTER_BOUND ( 'NONE', #86, .T. ) ;
#161 = DIRECTION ( 'NONE',  ( 3.491481338843133355E-15, -1.224646799147353207E-16, 1.000000000000000000 ) ) ;
#162 = DIRECTION ( 'NONE',  ( -4.275831445896958607E-31, -1.000000000000000000, -1.224646799147353207E-16 ) ) ;
#163 = ADVANCED_FACE ( 'NONE', ( #198 ), #214, .F. ) ;
#164 = PERSON_AND_ORGANIZATION_ROLE ( 'design_owner' ) ;
#165 = VERTEX_POINT ( 'NONE', #61 ) ;
#166 = APPLICATION_PROTOCOL_DEFINITION ( 'international standard', 'config_control_design', 1994, #194 ) ;
#167 = DIRECTION ( 'NONE',  ( 3.491481338843133355E-15, -1.224646799147353207E-16, 1.000000000000000000 ) ) ;
#168 = COORDINATED_UNIVERSAL_TIME_OFFSET ( 1, 0, .AHEAD. ) ;
#169 = PRODUCT ( '39037', '39037', '', ( #217 ) ) ;
#170 = EDGE_LOOP ( 'NONE', ( #157 ) ) ;
#171 = ORIENTED_EDGE ( 'NONE', *, *, #209, .F. ) ;
#172 = EDGE_LOOP ( 'NONE', ( #171 ) ) ;
#173 = DIRECTION ( 'NONE',  ( -3.491481338843133355E-15, 1.224646799147353207E-16, -1.000000000000000000 ) ) ;
#174 = DIRECTION ( 'NONE',  ( -3.491481338843133355E-15, 1.224646799147353207E-16, -1.000000000000000000 ) ) ;
#175 = PLANE ( 'NONE',  #71 ) ;
#176 = CC_DESIGN_DATE_AND_TIME_ASSIGNMENT ( #186, #100, ( #47 ) ) ;
#177 = AXIS2_PLACEMENT_3D ( 'NONE', #34, #125, #110 ) ;
#178 = CARTESIAN_POINT ( 'NONE',  ( 1.259879806782285975E-15, -4.419063494687154875E-17, 0.3608439182435195791 ) ) ;
#179 = LOCAL_TIME ( 7, 53, 49.00000000000000000, #28 ) ;
#180 = DIRECTION ( 'NONE',  ( 3.491481338843133355E-15, -1.224646799147353207E-16, 1.000000000000000000 ) ) ;
#181 = CC_DESIGN_PERSON_AND_ORGANIZATION_ASSIGNMENT ( #115, #182, ( #50 ) ) ;
#182 = PERSON_AND_ORGANIZATION_ROLE ( 'creator' ) ;
#183 = PERSON_AND_ORGANIZATION_ROLE ( 'creator' ) ;
#184 = APPROVAL_PERSON_ORGANIZATION ( #26, #9, #27 ) ;
#185 = APPROVAL_STATUS ( 'not_yet_approved' ) ;
#186 = DATE_AND_TIME ( #216, #179 ) ;
#187 = MANIFOLD_SOLID_BREP ( 'Corps-Déplacer/Copier1[2]', #18 ) ;
#188 = AXIS2_PLACEMENT_3D ( 'NONE', #139, #91, #199 ) ;
#189 = PERSON_AND_ORGANIZATION ( #98, #215 ) ;
#190 = DATE_AND_TIME ( #102, #223 ) ;
#191 = EDGE_LOOP ( 'NONE', ( #17 ) ) ;
#192 = CLOSED_SHELL ( 'NONE', ( #163, #138, #87, #128, #206 ) ) ;
#193 = CALENDAR_DATE ( 2021, 8, 10 ) ;
#194 = APPLICATION_CONTEXT ( 'configuration controlled 3d designs of mechanical parts and assemblies' ) ;
#195 = EDGE_LOOP ( 'NONE', ( #32 ) ) ;
#196 = AXIS2_PLACEMENT_3D ( 'NONE', #40, #5, #78 ) ;
#197 = LOCAL_TIME ( 7, 53, 49.00000000000000000, #99 ) ;
#198 = FACE_OUTER_BOUND ( 'NONE', #16, .T. ) ;
#199 = DIRECTION ( 'NONE',  ( -4.275831445896958607E-31, -1.000000000000000000, -1.224646799147353207E-16 ) ) ;
#200 = DIRECTION ( 'NONE',  ( 0.0000000000000000000, 1.000000000000000000, 0.0000000000000000000 ) ) ;
#201 = DATE_AND_TIME ( #129, #113 ) ;
#202 = AXIS2_PLACEMENT_3D ( 'NONE', #94, #19, #88 ) ;
#203 = SHAPE_DEFINITION_REPRESENTATION ( #65, #55 ) ;
#204 = APPROVAL_DATE_TIME ( #84, #23 ) ;
#205 = EDGE_LOOP ( 'NONE', ( #156 ) ) ;
#206 = ADVANCED_FACE ( 'NONE', ( #57 ), #175, .F. ) ;
#207 = CARTESIAN_POINT ( 'NONE',  ( 3.491481338843133355E-14, -1.224646799147353256E-15, 10.00000000000000000 ) ) ;
#208 = DIRECTION ( 'NONE',  ( -3.491481338843133355E-15, 1.224646799147353207E-16, -1.000000000000000000 ) ) ;
#209 = EDGE_CURVE ( 'NONE', #147, #147, #159, .T. ) ;
#210 = CC_DESIGN_SECURITY_CLASSIFICATION ( #149, ( #50 ) ) ;
#211 = DIRECTION ( 'NONE',  ( 0.0000000000000000000, 1.000000000000000000, 0.0000000000000000000 ) ) ;
#212 = FACE_OUTER_BOUND ( 'NONE', #172, .T. ) ;
#213 = EDGE_CURVE ( 'NONE', #13, #13, #152, .T. ) ;
#214 = PLANE ( 'NONE',  #49 ) ;
#215 = ORGANIZATION ( 'UNSPECIFIED', 'UNSPECIFIED', '' ) ;
#216 = CALENDAR_DATE ( 2021, 8, 10 ) ;
#217 = MECHANICAL_CONTEXT ( 'NONE', #194, 'mechanical' ) ;
#218 = CC_DESIGN_PERSON_AND_ORGANIZATION_ASSIGNMENT ( #44, #164, ( #169 ) ) ;
#219 =( GEOMETRIC_REPRESENTATION_CONTEXT ( 3 ) GLOBAL_UNCERTAINTY_ASSIGNED_CONTEXT ( ( #82 ) ) GLOBAL_UNIT_ASSIGNED_CONTEXT ( ( #43, #133, #145 ) ) REPRESENTATION_CONTEXT ( 'NONE', 'WORKASPACE' ) );
#220 = APPROVAL_ROLE ( '' ) ;
#221 = ADVANCED_FACE ( 'NONE', ( #52 ), #103, .T. ) ;
#222 = EDGE_LOOP ( 'NONE', ( #14 ) ) ;
#223 = LOCAL_TIME ( 7, 53, 49.00000000000000000, #104 ) ;
ENDSEC;
END-ISO-10303-21;
