ISO-10303-21;
HEADER;
FILE_DESCRIPTION (( 'STEP AP203' ),
    '1' );
FILE_NAME ('39036.step',
    '2021-10-08T05:53:48',
    ( '' ),
    ( '' ),
    'SwSTEP 2.0',
    'SolidWorks 2019',
    '' );
FILE_SCHEMA (( 'CONFIG_CONTROL_DESIGN' ));
ENDSEC;

DATA;
#1 = FACE_OUTER_BOUND ( 'NONE', #51, .T. ) ;
#2 = VERTEX_POINT ( 'NONE', #134 ) ;
#3 = LOCAL_TIME ( 7, 53, 48.00000000000000000, #155 ) ;
#4 = AXIS2_PLACEMENT_3D ( 'NONE', #50, #116, #180 ) ;
#5 = CARTESIAN_POINT ( 'NONE',  ( 3.491481338843133986E-14, -1.224646799147353454E-15, 10.00000000000000178 ) ) ;
#6 = CARTESIAN_POINT ( 'NONE',  ( 3.582192684931457223E-14, 0.7499999999999963363, 10.25980762113533196 ) ) ;
#7 = CARTESIAN_POINT ( 'NONE',  ( 0.0000000000000000000, 0.0000000000000000000, 0.0000000000000000000 ) ) ;
#8 = APPROVAL_STATUS ( 'not_yet_approved' ) ;
#9 = PERSON_AND_ORGANIZATION ( #170, #66 ) ;
#10 = COORDINATED_UNIVERSAL_TIME_OFFSET ( 1, 0, .AHEAD. ) ;
#11 = CC_DESIGN_PERSON_AND_ORGANIZATION_ASSIGNMENT ( #9, #99, ( #86 ) ) ;
#12 = FACE_OUTER_BOUND ( 'NONE', #26, .T. ) ;
#13 = APPLICATION_CONTEXT ( 'configuration controlled 3d designs of mechanical parts and assemblies' ) ;
#14 = CALENDAR_DATE ( 2021, 8, 10 ) ;
#15 = DIRECTION ( 'NONE',  ( -3.491481338843133355E-15, 1.224646799147353207E-16, -1.000000000000000000 ) ) ;
#16 = PERSON_AND_ORGANIZATION_ROLE ( 'creator' ) ;
#17 = EDGE_LOOP ( 'NONE', ( #164 ) ) ;
#18 = ORIENTED_EDGE ( 'NONE', *, *, #115, .T. ) ;
#19 = MANIFOLD_SOLID_BREP ( 'Corps-Déplacer/Copier1[2]', #147 ) ;
#20 = DIRECTION ( 'NONE',  ( -3.491481338843133355E-15, 1.224646799147353207E-16, -1.000000000000000000 ) ) ;
#21 = CARTESIAN_POINT ( 'NONE',  ( 3.491481338843133986E-14, -1.224646799147353454E-15, 10.00000000000000178 ) ) ;
#22 = EDGE_CURVE ( 'NONE', #2, #2, #58, .T. ) ;
#23 = PERSON_AND_ORGANIZATION_ROLE ( 'design_owner' ) ;
#24 = LOCAL_TIME ( 7, 53, 48.00000000000000000, #179 ) ;
#25 = SECURITY_CLASSIFICATION_LEVEL ( 'unclassified' ) ;
#26 = EDGE_LOOP ( 'NONE', ( #64 ) ) ;
#27 = PERSON_AND_ORGANIZATION ( #170, #66 ) ;
#28 = EDGE_LOOP ( 'NONE', ( #202 ) ) ;
#29 = DATE_AND_TIME ( #44, #169 ) ;
#30 = DIRECTION ( 'NONE',  ( -3.491481338843133355E-15, 1.224646799147353207E-16, -1.000000000000000000 ) ) ;
#31 = DIRECTION ( 'NONE',  ( 0.0000000000000000000, -1.000000000000000000, 0.0000000000000000000 ) ) ;
#32 = ORIENTED_EDGE ( 'NONE', *, *, #35, .F. ) ;
#33 = VERTEX_POINT ( 'NONE', #6 ) ;
#34 = AXIS2_PLACEMENT_3D ( 'NONE', #36, #203, #151 ) ;
#35 = EDGE_CURVE ( 'NONE', #89, #89, #177, .T. ) ;
#36 = CARTESIAN_POINT ( 'NONE',  ( 1.047444401652940007E-13, -3.673940397442059178E-15, 30.00000000000000000 ) ) ;
#37 = EDGE_CURVE ( 'NONE', #33, #33, #196, .T. ) ;
#38 = DIRECTION ( 'NONE',  ( -4.275831445896958607E-31, -1.000000000000000000, -1.224646799147353207E-16 ) ) ;
#39 = LOCAL_TIME ( 7, 53, 48.00000000000000000, #10 ) ;
#40 = CARTESIAN_POINT ( 'NONE',  ( 3.491481338843133986E-14, 0.5999999999999998668, 10.00000000000000178 ) ) ;
#41 = ADVANCED_FACE ( 'NONE', ( #188, #83 ), #103, .T. ) ;
#42 = CC_DESIGN_PERSON_AND_ORGANIZATION_ASSIGNMENT ( #211, #23, ( #168 ) ) ;
#43 = CC_DESIGN_SECURITY_CLASSIFICATION ( #176, ( #86 ) ) ;
#44 = CALENDAR_DATE ( 2021, 8, 10 ) ;
#45 = PLANE ( 'NONE',  #141 ) ;
#46 = PERSON_AND_ORGANIZATION ( #170, #66 ) ;
#47 = CARTESIAN_POINT ( 'NONE',  ( 3.582192684931457223E-14, -1.256464056309100442E-15, 10.25980762113533196 ) ) ;
#48 = PRODUCT_RELATED_PRODUCT_CATEGORY ( 'detail', '', ( #168 ) ) ;
#49 = EDGE_LOOP ( 'NONE', ( #165 ) ) ;
#50 = CARTESIAN_POINT ( 'NONE',  ( 1.047444401652940007E-13, -3.673940397442059178E-15, 30.00000000000000000 ) ) ;
#51 = EDGE_LOOP ( 'NONE', ( #87 ) ) ;
#52 = CARTESIAN_POINT ( 'NONE',  ( 1.209484614510994631E-15, -4.242300954899669075E-17, 0.3464101615137787915 ) ) ;
#53 = CC_DESIGN_DATE_AND_TIME_ASSIGNMENT ( #212, #121, ( #72 ) ) ;
#54 = AXIS2_PLACEMENT_3D ( 'NONE', #52, #55, #173 ) ;
#55 = DIRECTION ( 'NONE',  ( 3.491481338843133355E-15, -1.224646799147353207E-16, 1.000000000000000000 ) ) ;
#56 = ADVANCED_FACE ( 'NONE', ( #187, #148 ), #190, .T. ) ;
#57 = APPROVAL_ROLE ( '' ) ;
#58 = CIRCLE ( 'NONE', #171, 0.7500000000000000000 ) ;
#59 = AXIS2_PLACEMENT_3D ( 'NONE', #47, #30, #101 ) ;
#60 = ORIENTED_EDGE ( 'NONE', *, *, #35, .T. ) ;
#61 = FACE_OUTER_BOUND ( 'NONE', #200, .T. ) ;
#62 = CARTESIAN_POINT ( 'NONE',  ( 3.582192684931457223E-14, -1.256464056309100442E-15, 10.25980762113533196 ) ) ;
#63 = EDGE_LOOP ( 'NONE', ( #126 ) ) ;
#64 = ORIENTED_EDGE ( 'NONE', *, *, #194, .T. ) ;
#65 = FACE_OUTER_BOUND ( 'NONE', #201, .T. ) ;
#66 = ORGANIZATION ( 'UNSPECIFIED', 'UNSPECIFIED', '' ) ;
#67 =( LENGTH_UNIT ( ) NAMED_UNIT ( * ) SI_UNIT ( .MILLI., .METRE. ) );
#68 = CIRCLE ( 'NONE', #4, 0.5500000000000000444 ) ;
#69 = DIRECTION ( 'NONE',  ( 0.0000000000000000000, 1.000000000000000000, 0.0000000000000000000 ) ) ;
#70 = CARTESIAN_POINT ( 'NONE',  ( 1.209484614510994828E-15, 0.5999999999999988676, 0.3464101615137788470 ) ) ;
#71 = DIRECTION ( 'NONE',  ( -3.491481338843133355E-15, 1.224646799147353207E-16, -1.000000000000000000 ) ) ;
#72 = PRODUCT_DEFINITION ( 'UNKNOWN', '', #86, #94 ) ;
#73 = PERSON_AND_ORGANIZATION ( #170, #66 ) ;
#74 = ADVANCED_FACE ( 'NONE', ( #220 ), #45, .F. ) ;
#75 = COORDINATED_UNIVERSAL_TIME_OFFSET ( 1, 0, .AHEAD. ) ;
#76 = PERSON_AND_ORGANIZATION ( #170, #66 ) ;
#77 = PLANE ( 'NONE',  #96 ) ;
#78 = CALENDAR_DATE ( 2021, 8, 10 ) ;
#79 = AXIS2_PLACEMENT_3D ( 'NONE', #117, #199, #219 ) ;
#80 = CIRCLE ( 'NONE', #156, 0.6000000000000009770 ) ;
#81 = EDGE_CURVE ( 'NONE', #135, #135, #68, .T. ) ;
#82 = DIRECTION ( 'NONE',  ( 3.491481338843133355E-15, -1.224646799147353207E-16, 1.000000000000000000 ) ) ;
#83 = FACE_OUTER_BOUND ( 'NONE', #145, .T. ) ;
#84 = EDGE_LOOP ( 'NONE', ( #32 ) ) ;
#85 = APPROVAL ( #8, 'UNSPECIFIED' ) ;
#86 = PRODUCT_DEFINITION_FORMATION_WITH_SPECIFIED_SOURCE ( 'ANY', '', #168, .NOT_KNOWN. ) ;
#87 = ORIENTED_EDGE ( 'NONE', *, *, #22, .F. ) ;
#88 = CARTESIAN_POINT ( 'NONE',  ( 3.491481338843133986E-14, 0.5999999999999998668, 10.00000000000000178 ) ) ;
#89 = VERTEX_POINT ( 'NONE', #70 ) ;
#90 =( GEOMETRIC_REPRESENTATION_CONTEXT ( 3 ) GLOBAL_UNCERTAINTY_ASSIGNED_CONTEXT ( ( #154 ) ) GLOBAL_UNIT_ASSIGNED_CONTEXT ( ( #67, #192, #191 ) ) REPRESENTATION_CONTEXT ( 'NONE', 'WORKASPACE' ) );
#91 = FACE_OUTER_BOUND ( 'NONE', #98, .T. ) ;
#92 = DIRECTION ( 'NONE',  ( 3.491481338843133355E-15, -1.224646799147353207E-16, 1.000000000000000000 ) ) ;
#93 = ADVANCED_FACE ( 'NONE', ( #12 ), #77, .F. ) ;
#94 = DESIGN_CONTEXT ( 'detailed design', #13, 'design' ) ;
#95 = APPROVAL_DATE_TIME ( #142, #85 ) ;
#96 = AXIS2_PLACEMENT_3D ( 'NONE', #140, #82, #143 ) ;
#97 = APPROVAL_DATE_TIME ( #102, #149 ) ;
#98 = EDGE_LOOP ( 'NONE', ( #223 ) ) ;
#99 = PERSON_AND_ORGANIZATION_ROLE ( 'design_supplier' ) ;
#100 = APPROVAL ( #163, 'UNSPECIFIED' ) ;
#101 = DIRECTION ( 'NONE',  ( 0.0000000000000000000, 1.000000000000000000, 0.0000000000000000000 ) ) ;
#102 = DATE_AND_TIME ( #158, #104 ) ;
#103 = CYLINDRICAL_SURFACE ( 'NONE', #111, 0.5999999999999999778 ) ;
#104 = LOCAL_TIME ( 7, 53, 48.00000000000000000, #110 ) ;
#105 = CARTESIAN_POINT ( 'NONE',  ( 1.047444401652940007E-13, 0.5499999999999963807, 30.00000000000000000 ) ) ;
#106 = DIRECTION ( 'NONE',  ( 0.0000000000000000000, 1.000000000000000000, 0.0000000000000000000 ) ) ;
#107 = CC_DESIGN_APPROVAL ( #149, ( #72 ) ) ;
#108 = MECHANICAL_CONTEXT ( 'NONE', #185, 'mechanical' ) ;
#109 = APPLICATION_PROTOCOL_DEFINITION ( 'international standard', 'config_control_design', 1994, #185 ) ;
#110 = COORDINATED_UNIVERSAL_TIME_OFFSET ( 1, 0, .AHEAD. ) ;
#111 = AXIS2_PLACEMENT_3D ( 'NONE', #144, #166, #160 ) ;
#112 = ADVANCED_FACE ( 'NONE', ( #61 ), #127, .T. ) ;
#113 = CC_DESIGN_APPROVAL ( #85, ( #86 ) ) ;
#114 = CARTESIAN_POINT ( 'NONE',  ( 1.047444401652940007E-13, 4.124339402320052999E-33, 30.00000000000000000 ) ) ;
#115 = EDGE_CURVE ( 'NONE', #208, #208, #125, .T. ) ;
#116 = DIRECTION ( 'NONE',  ( -3.491481338843133355E-15, 1.224646799147353207E-16, -1.000000000000000000 ) ) ;
#117 = CARTESIAN_POINT ( 'NONE',  ( 1.209484614510994631E-15, -4.242300954899669075E-17, 0.3464101615137787915 ) ) ;
#118 = DIRECTION ( 'NONE',  ( -3.491481338843133355E-15, 1.224646799147353207E-16, -1.000000000000000000 ) ) ;
#119 = CONICAL_SURFACE ( 'NONE', #54, 0.5999999999999988676, 1.047197551196592746 ) ;
#120 = DIRECTION ( 'NONE',  ( 0.0000000000000000000, 0.0000000000000000000, 1.000000000000000000 ) ) ;
#121 = DATE_TIME_ROLE ( 'creation_date' ) ;
#122 = ADVANCED_FACE ( 'NONE', ( #1, #172 ), #178, .T. ) ;
#123 = AXIS2_PLACEMENT_3D ( 'NONE', #207, #92, #38 ) ;
#124 = PERSON_AND_ORGANIZATION_ROLE ( 'classification_officer' ) ;
#125 = CIRCLE ( 'NONE', #217, 0.6000000000000009770 ) ;
#126 = ORIENTED_EDGE ( 'NONE', *, *, #22, .T. ) ;
#127 = PLANE ( 'NONE',  #123 ) ;
#128 = DIRECTION ( 'NONE',  ( 4.275831445896958607E-31, 1.000000000000000000, 1.224646799147353207E-16 ) ) ;
#129 = DIRECTION ( 'NONE',  ( 0.0000000000000000000, 1.000000000000000000, 0.0000000000000000000 ) ) ;
#130 = DIRECTION ( 'NONE',  ( -3.491481338843133355E-15, 1.224646799147353207E-16, -1.000000000000000000 ) ) ;
#131 = ADVANCED_FACE ( 'NONE', ( #65 ), #119, .T. ) ;
#132 = PRODUCT_DEFINITION_SHAPE ( 'NONE', 'NONE',  #72 ) ;
#133 = AXIS2_PLACEMENT_3D ( 'NONE', #62, #162, #31 ) ;
#134 = CARTESIAN_POINT ( 'NONE',  ( 1.040461438975253740E-13, 0.7499999999999963363, 29.80000000000000071 ) ) ;
#135 = VERTEX_POINT ( 'NONE', #105 ) ;
#136 = APPROVAL_PERSON_ORGANIZATION ( #46, #100, #218 ) ;
#137 = APPROVAL_DATE_TIME ( #29, #100 ) ;
#138 = CLOSED_SHELL ( 'NONE', ( #93, #56, #210, #122, #74 ) ) ;
#139 = APPROVAL_ROLE ( '' ) ;
#140 = CARTESIAN_POINT ( 'NONE',  ( 3.491481338843133986E-14, -2.079430758780911508E-31, 10.00000000000000178 ) ) ;
#141 = AXIS2_PLACEMENT_3D ( 'NONE', #114, #15, #128 ) ;
#142 = DATE_AND_TIME ( #78, #24 ) ;
#143 = DIRECTION ( 'NONE',  ( -4.275831445896958607E-31, -1.000000000000000000, -1.224646799147353207E-16 ) ) ;
#144 = CARTESIAN_POINT ( 'NONE',  ( 0.0000000000000000000, 0.0000000000000000000, 0.0000000000000000000 ) ) ;
#145 = EDGE_LOOP ( 'NONE', ( #18 ) ) ;
#146 = AXIS2_PLACEMENT_3D ( 'NONE', #7, #120, #193 ) ;
#147 = CLOSED_SHELL ( 'NONE', ( #131, #41, #112 ) ) ;
#148 = FACE_OUTER_BOUND ( 'NONE', #17, .T. ) ;
#149 = APPROVAL ( #195, 'UNSPECIFIED' ) ;
#150 = VERTEX_POINT ( 'NONE', #40 ) ;
#151 = DIRECTION ( 'NONE',  ( 0.0000000000000000000, 1.000000000000000000, 0.0000000000000000000 ) ) ;
#152 = CC_DESIGN_PERSON_AND_ORGANIZATION_ASSIGNMENT ( #214, #198, ( #86 ) ) ;
#153 = CYLINDRICAL_SURFACE ( 'NONE', #206, 0.7499999999999987788 ) ;
#154 = UNCERTAINTY_MEASURE_WITH_UNIT (LENGTH_MEASURE( 1.000000000000000082E-05 ), #67, 'distance_accuracy_value', 'NONE');
#155 = COORDINATED_UNIVERSAL_TIME_OFFSET ( 1, 0, .AHEAD. ) ;
#156 = AXIS2_PLACEMENT_3D ( 'NONE', #21, #118, #69 ) ;
#157 = CALENDAR_DATE ( 2021, 8, 10 ) ;
#158 = CALENDAR_DATE ( 2021, 8, 10 ) ;
#159 = MANIFOLD_SOLID_BREP ( 'Corps-Déplacer/Copier1[1]', #138 ) ;
#160 = DIRECTION ( 'NONE',  ( 4.275831445896958607E-31, 1.000000000000000000, 1.224646799147352961E-16 ) ) ;
#161 = DATE_TIME_ROLE ( 'classification_date' ) ;
#162 = DIRECTION ( 'NONE',  ( 3.491481338843133355E-15, -1.224646799147353207E-16, 1.000000000000000000 ) ) ;
#163 = APPROVAL_STATUS ( 'not_yet_approved' ) ;
#164 = ORIENTED_EDGE ( 'NONE', *, *, #37, .T. ) ;
#165 = ORIENTED_EDGE ( 'NONE', *, *, #194, .F. ) ;
#166 = DIRECTION ( 'NONE',  ( -3.491481338843133355E-15, 1.224646799147353207E-16, -1.000000000000000000 ) ) ;
#167 = CARTESIAN_POINT ( 'NONE',  ( 0.0000000000000000000, 0.0000000000000000000, 0.0000000000000000000 ) ) ;
#168 = PRODUCT ( '39036', '39036', '', ( #108 ) ) ;
#169 = LOCAL_TIME ( 7, 53, 48.00000000000000000, #75 ) ;
#170 = PERSON ( 'UNSPECIFIED', 'UNSPECIFIED', 'UNSPECIFIED', ('UNSPECIFIED'), ('UNSPECIFIED'), ('UNSPECIFIED') ) ;
#171 = AXIS2_PLACEMENT_3D ( 'NONE', #184, #130, #129 ) ;
#172 = FACE_BOUND ( 'NONE', #216, .T. ) ;
#173 = DIRECTION ( 'NONE',  ( -3.209883240645399365E-31, -1.000000000000000000, -9.035018104045887951E-17 ) ) ;
#174 = SHAPE_DEFINITION_REPRESENTATION ( #132, #186 ) ;
#175 = CC_DESIGN_PERSON_AND_ORGANIZATION_ASSIGNMENT ( #76, #124, ( #176 ) ) ;
#176 = SECURITY_CLASSIFICATION ( '', '', #25 ) ;
#177 = CIRCLE ( 'NONE', #79, 0.5999999999999988676 ) ;
#178 = CONICAL_SURFACE ( 'NONE', #34, 0.5500000000000000444, 0.7853981633974512766 ) ;
#179 = COORDINATED_UNIVERSAL_TIME_OFFSET ( 1, 0, .AHEAD. ) ;
#180 = DIRECTION ( 'NONE',  ( 0.0000000000000000000, 1.000000000000000000, 0.0000000000000000000 ) ) ;
#181 = PERSON_AND_ORGANIZATION ( #170, #66 ) ;
#182 = ORIENTED_EDGE ( 'NONE', *, *, #115, .F. ) ;
#183 = APPLICATION_PROTOCOL_DEFINITION ( 'international standard', 'config_control_design', 1994, #13 ) ;
#184 = CARTESIAN_POINT ( 'NONE',  ( 1.040461438975253740E-13, -3.649447461459112464E-15, 29.80000000000000071 ) ) ;
#185 = APPLICATION_CONTEXT ( 'configuration controlled 3d designs of mechanical parts and assemblies' ) ;
#186 = ADVANCED_BREP_SHAPE_REPRESENTATION ( '39036', ( #159, #19, #146 ), #90 ) ;
#187 = FACE_BOUND ( 'NONE', #49, .T. ) ;
#188 = FACE_OUTER_BOUND ( 'NONE', #84, .T. ) ;
#189 = DIRECTION ( 'NONE',  ( 4.275831445896959482E-31, 1.000000000000000000, 1.224646799147353207E-16 ) ) ;
#190 = CONICAL_SURFACE ( 'NONE', #133, 0.7499999999999976685, 0.5235987755982921543 ) ;
#191 =( NAMED_UNIT ( * ) SI_UNIT ( $, .STERADIAN. ) SOLID_ANGLE_UNIT ( ) );
#192 =( NAMED_UNIT ( * ) PLANE_ANGLE_UNIT ( ) SI_UNIT ( $, .RADIAN. ) );
#193 = DIRECTION ( 'NONE',  ( 1.000000000000000000, 0.0000000000000000000, 0.0000000000000000000 ) ) ;
#194 = EDGE_CURVE ( 'NONE', #150, #150, #80, .T. ) ;
#195 = APPROVAL_STATUS ( 'not_yet_approved' ) ;
#196 = CIRCLE ( 'NONE', #59, 0.7499999999999976685 ) ;
#197 = DATE_AND_TIME ( #14, #3 ) ;
#198 = PERSON_AND_ORGANIZATION_ROLE ( 'creator' ) ;
#199 = DIRECTION ( 'NONE',  ( -3.491481338843133355E-15, 1.224646799147353207E-16, -1.000000000000000000 ) ) ;
#200 = EDGE_LOOP ( 'NONE', ( #182 ) ) ;
#201 = EDGE_LOOP ( 'NONE', ( #60 ) ) ;
#202 = ORIENTED_EDGE ( 'NONE', *, *, #81, .F. ) ;
#203 = DIRECTION ( 'NONE',  ( -3.491481338843133355E-15, 1.224646799147353207E-16, -1.000000000000000000 ) ) ;
#204 = FACE_OUTER_BOUND ( 'NONE', #63, .T. ) ;
#205 = APPROVAL_PERSON_ORGANIZATION ( #73, #85, #139 ) ;
#206 = AXIS2_PLACEMENT_3D ( 'NONE', #167, #20, #189 ) ;
#207 = CARTESIAN_POINT ( 'NONE',  ( 3.491481338843133986E-14, -2.079430758780911508E-31, 10.00000000000000178 ) ) ;
#208 = VERTEX_POINT ( 'NONE', #88 ) ;
#209 = CC_DESIGN_APPROVAL ( #100, ( #176 ) ) ;
#210 = ADVANCED_FACE ( 'NONE', ( #91, #204 ), #153, .T. ) ;
#211 = PERSON_AND_ORGANIZATION ( #170, #66 ) ;
#212 = DATE_AND_TIME ( #157, #39 ) ;
#213 = APPROVAL_PERSON_ORGANIZATION ( #27, #149, #57 ) ;
#214 = PERSON_AND_ORGANIZATION ( #170, #66 ) ;
#215 = CC_DESIGN_PERSON_AND_ORGANIZATION_ASSIGNMENT ( #181, #16, ( #72 ) ) ;
#216 = EDGE_LOOP ( 'NONE', ( #222 ) ) ;
#217 = AXIS2_PLACEMENT_3D ( 'NONE', #5, #71, #106 ) ;
#218 = APPROVAL_ROLE ( '' ) ;
#219 = DIRECTION ( 'NONE',  ( 3.209883240645399365E-31, 1.000000000000000000, 9.035018104045887951E-17 ) ) ;
#220 = FACE_OUTER_BOUND ( 'NONE', #28, .T. ) ;
#221 = CC_DESIGN_DATE_AND_TIME_ASSIGNMENT ( #197, #161, ( #176 ) ) ;
#222 = ORIENTED_EDGE ( 'NONE', *, *, #81, .T. ) ;
#223 = ORIENTED_EDGE ( 'NONE', *, *, #37, .F. ) ;
ENDSEC;
END-ISO-10303-21;
