ISO-10303-21;
HEADER;
FILE_DESCRIPTION (( 'STEP AP203' ),
    '1' );
FILE_NAME ('39035.step',
    '2021-10-08T05:53:48',
    ( '' ),
    ( '' ),
    'SwSTEP 2.0',
    'SolidWorks 2019',
    '' );
FILE_SCHEMA (( 'CONFIG_CONTROL_DESIGN' ));
ENDSEC;

DATA;
#1 = VERTEX_POINT ( 'NONE', #47 ) ;
#2 = ORIENTED_EDGE ( 'NONE', *, *, #34, .T. ) ;
#3 = CIRCLE ( 'NONE', #60, 0.7499999999999975575 ) ;
#4 = PERSON_AND_ORGANIZATION_ROLE ( 'creator' ) ;
#5 = EDGE_LOOP ( 'NONE', ( #21 ) ) ;
#6 = PERSON_AND_ORGANIZATION ( #17, #124 ) ;
#7 = DIRECTION ( 'NONE',  ( -3.491481338843133355E-15, 1.224646799147353207E-16, -1.000000000000000000 ) ) ;
#8 = CONICAL_SURFACE ( 'NONE', #149, 0.7499999999999975575, 0.5235987755982927094 ) ;
#9 = DIRECTION ( 'NONE',  ( -3.491481338843133355E-15, 1.224646799147353207E-16, -1.000000000000000000 ) ) ;
#10 = AXIS2_PLACEMENT_3D ( 'NONE', #206, #182, #184 ) ;
#11 = CC_DESIGN_SECURITY_CLASSIFICATION ( #101, ( #67 ) ) ;
#12 = ORIENTED_EDGE ( 'NONE', *, *, #92, .F. ) ;
#13 = DIRECTION ( 'NONE',  ( 3.349443381543025101E-31, 1.000000000000000000, 9.427844978134838690E-17 ) ) ;
#14 = CLOSED_SHELL ( 'NONE', ( #73, #48, #32, #115, #199 ) ) ;
#15 = PERSON_AND_ORGANIZATION ( #17, #124 ) ;
#16 = LOCAL_TIME ( 7, 53, 48.00000000000000000, #211 ) ;
#17 = PERSON ( 'UNSPECIFIED', 'UNSPECIFIED', 'UNSPECIFIED', ('UNSPECIFIED'), ('UNSPECIFIED'), ('UNSPECIFIED') ) ;
#18 = APPROVAL ( #203, 'UNSPECIFIED' ) ;
#19 = DIRECTION ( 'NONE',  ( -4.275831445896958607E-31, -1.000000000000000000, -1.224646799147353207E-16 ) ) ;
#20 = LOCAL_TIME ( 7, 53, 48.00000000000000000, #140 ) ;
#21 = ORIENTED_EDGE ( 'NONE', *, *, #157, .T. ) ;
#22 = EDGE_LOOP ( 'NONE', ( #2 ) ) ;
#23 = SHAPE_DEFINITION_REPRESENTATION ( #59, #194 ) ;
#24 = DIRECTION ( 'NONE',  ( -3.491481338843133355E-15, 1.224646799147353207E-16, -1.000000000000000000 ) ) ;
#25 = PERSON_AND_ORGANIZATION ( #17, #124 ) ;
#26 = EDGE_LOOP ( 'NONE', ( #72 ) ) ;
#27 = CARTESIAN_POINT ( 'NONE',  ( 0.0000000000000000000, 0.0000000000000000000, 0.0000000000000000000 ) ) ;
#28 = DIRECTION ( 'NONE',  ( 0.0000000000000000000, 1.000000000000000000, 0.0000000000000000000 ) ) ;
#29 = APPROVAL_PERSON_ORGANIZATION ( #15, #18, #52 ) ;
#30 = CYLINDRICAL_SURFACE ( 'NONE', #46, 0.7499999999999986677 ) ;
#31 = CARTESIAN_POINT ( 'NONE',  ( 1.040461438975253740E-13, 0.7499999999999963363, 29.80000000000000071 ) ) ;
#32 = ADVANCED_FACE ( 'NONE', ( #192, #41 ), #30, .T. ) ;
#33 = CARTESIAN_POINT ( 'NONE',  ( 3.142333204958820020E-14, 0.5749999999999987343, 9.000000000000000000 ) ) ;
#34 = EDGE_CURVE ( 'NONE', #1, #1, #177, .T. ) ;
#35 = APPROVAL_STATUS ( 'not_yet_approved' ) ;
#36 = AXIS2_PLACEMENT_3D ( 'NONE', #129, #201, #105 ) ;
#37 = APPROVAL_PERSON_ORGANIZATION ( #134, #169, #135 ) ;
#38 = MANIFOLD_SOLID_BREP ( 'Corps-Déplacer/Copier1[2]', #143 ) ;
#39 = COORDINATED_UNIVERSAL_TIME_OFFSET ( 1, 0, .AHEAD. ) ;
#40 = DIRECTION ( 'NONE',  ( -3.491481338843133355E-15, 1.224646799147353207E-16, -1.000000000000000000 ) ) ;
#41 = FACE_OUTER_BOUND ( 'NONE', #165, .T. ) ;
#42 = CIRCLE ( 'NONE', #75, 0.7500000000000000000 ) ;
#43 = CC_DESIGN_APPROVAL ( #18, ( #132 ) ) ;
#44 = DIRECTION ( 'NONE',  ( 0.0000000000000000000, 1.000000000000000000, 0.0000000000000000000 ) ) ;
#45 = CARTESIAN_POINT ( 'NONE',  ( 3.248163108728531409E-14, -1.139302252587989529E-15, 9.303108891324553653 ) ) ;
#46 = AXIS2_PLACEMENT_3D ( 'NONE', #27, #130, #77 ) ;
#47 = CARTESIAN_POINT ( 'NONE',  ( 1.159089422239703089E-15, 0.5749999999999989564, 0.3319764047840380594 ) ) ;
#48 = ADVANCED_FACE ( 'NONE', ( #214, #123 ), #8, .T. ) ;
#49 = DATE_AND_TIME ( #153, #217 ) ;
#50 = PLANE ( 'NONE',  #10 ) ;
#51 =( NAMED_UNIT ( * ) SI_UNIT ( $, .STERADIAN. ) SOLID_ANGLE_UNIT ( ) );
#52 = APPROVAL_ROLE ( '' ) ;
#53 = EDGE_LOOP ( 'NONE', ( #12 ) ) ;
#54 = EDGE_LOOP ( 'NONE', ( #82 ) ) ;
#55 = CC_DESIGN_DATE_AND_TIME_ASSIGNMENT ( #155, #70, ( #132 ) ) ;
#56 = ORIENTED_EDGE ( 'NONE', *, *, #34, .F. ) ;
#57 = EDGE_CURVE ( 'NONE', #170, #170, #222, .T. ) ;
#58 = DIRECTION ( 'NONE',  ( 3.491481338843133355E-15, -1.224646799147353207E-16, 1.000000000000000000 ) ) ;
#59 = PRODUCT_DEFINITION_SHAPE ( 'NONE', 'NONE',  #132 ) ;
#60 = AXIS2_PLACEMENT_3D ( 'NONE', #63, #93, #28 ) ;
#61 = LOCAL_TIME ( 7, 53, 48.00000000000000000, #150 ) ;
#62 = CC_DESIGN_PERSON_AND_ORGANIZATION_ASSIGNMENT ( #6, #159, ( #67 ) ) ;
#63 = CARTESIAN_POINT ( 'NONE',  ( 3.248163108728531409E-14, -1.139302252587989529E-15, 9.303108891324553653 ) ) ;
#64 = CYLINDRICAL_SURFACE ( 'NONE', #126, 0.5749999999999992895 ) ;
#65 = EDGE_LOOP ( 'NONE', ( #187 ) ) ;
#66 = CONICAL_SURFACE ( 'NONE', #207, 0.5500000000000000444, 0.7853981633974512766 ) ;
#67 = PRODUCT_DEFINITION_FORMATION_WITH_SPECIFIED_SOURCE ( 'ANY', '', #204, .NOT_KNOWN. ) ;
#68 = DIRECTION ( 'NONE',  ( 1.000000000000000000, 0.0000000000000000000, 0.0000000000000000000 ) ) ;
#69 = VERTEX_POINT ( 'NONE', #116 ) ;
#70 = DATE_TIME_ROLE ( 'creation_date' ) ;
#71 = ORIENTED_EDGE ( 'NONE', *, *, #152, .T. ) ;
#72 = ORIENTED_EDGE ( 'NONE', *, *, #57, .F. ) ;
#73 = ADVANCED_FACE ( 'NONE', ( #146 ), #221, .F. ) ;
#74 = CALENDAR_DATE ( 2021, 8, 10 ) ;
#75 = AXIS2_PLACEMENT_3D ( 'NONE', #141, #7, #142 ) ;
#76 = ORIENTED_EDGE ( 'NONE', *, *, #152, .F. ) ;
#77 = DIRECTION ( 'NONE',  ( 4.275831445896959482E-31, 1.000000000000000000, 1.224646799147353207E-16 ) ) ;
#78 = APPROVAL_DATE_TIME ( #189, #169 ) ;
#79 = DIRECTION ( 'NONE',  ( 0.0000000000000000000, 1.000000000000000000, 0.0000000000000000000 ) ) ;
#80 = CARTESIAN_POINT ( 'NONE',  ( 1.159089422239702892E-15, -4.065538415112182041E-17, 0.3319764047840380039 ) ) ;
#81 = CC_DESIGN_PERSON_AND_ORGANIZATION_ASSIGNMENT ( #118, #166, ( #132 ) ) ;
#82 = ORIENTED_EDGE ( 'NONE', *, *, #92, .T. ) ;
#83 = VERTEX_POINT ( 'NONE', #33 ) ;
#84 = CONICAL_SURFACE ( 'NONE', #136, 0.5749999999999989564, 1.047197551196592746 ) ;
#85 = APPROVAL_DATE_TIME ( #49, #18 ) ;
#86 = DESIGN_CONTEXT ( 'detailed design', #213, 'design' ) ;
#87 = CARTESIAN_POINT ( 'NONE',  ( 3.142333204958820020E-14, 0.5749999999999987343, 9.000000000000000000 ) ) ;
#88 = APPLICATION_PROTOCOL_DEFINITION ( 'international standard', 'config_control_design', 1994, #213 ) ;
#89 = EDGE_LOOP ( 'NONE', ( #91 ) ) ;
#90 = APPROVAL ( #212, 'UNSPECIFIED' ) ;
#91 = ORIENTED_EDGE ( 'NONE', *, *, #57, .T. ) ;
#92 = EDGE_CURVE ( 'NONE', #223, #223, #200, .T. ) ;
#93 = DIRECTION ( 'NONE',  ( -3.491481338843133355E-15, 1.224646799147353207E-16, -1.000000000000000000 ) ) ;
#94 = FACE_OUTER_BOUND ( 'NONE', #53, .T. ) ;
#95 = ORIENTED_EDGE ( 'NONE', *, *, #139, .T. ) ;
#96 = MECHANICAL_CONTEXT ( 'NONE', #119, 'mechanical' ) ;
#97 = AXIS2_PLACEMENT_3D ( 'NONE', #197, #40, #147 ) ;
#98 = FACE_OUTER_BOUND ( 'NONE', #26, .T. ) ;
#99 = CC_DESIGN_PERSON_AND_ORGANIZATION_ASSIGNMENT ( #25, #4, ( #67 ) ) ;
#100 = APPLICATION_PROTOCOL_DEFINITION ( 'international standard', 'config_control_design', 1994, #119 ) ;
#101 = SECURITY_CLASSIFICATION ( '', '', #122 ) ;
#102 = PERSON_AND_ORGANIZATION_ROLE ( 'classification_officer' ) ;
#103 = DATE_AND_TIME ( #173, #193 ) ;
#104 = MANIFOLD_SOLID_BREP ( 'Corps-Déplacer/Copier1[1]', #14 ) ;
#105 = DIRECTION ( 'NONE',  ( -4.275831445896958607E-31, -1.000000000000000000, -1.224646799147353207E-16 ) ) ;
#106 = DATE_TIME_ROLE ( 'classification_date' ) ;
#107 = AXIS2_PLACEMENT_3D ( 'NONE', #205, #113, #19 ) ;
#108 = AXIS2_PLACEMENT_3D ( 'NONE', #112, #9, #79 ) ;
#109 = DIRECTION ( 'NONE',  ( -3.491481338843133355E-15, 1.224646799147353207E-16, -1.000000000000000000 ) ) ;
#110 = FACE_OUTER_BOUND ( 'NONE', #22, .T. ) ;
#111 = CARTESIAN_POINT ( 'NONE',  ( 1.047444401652940007E-13, -3.673940397442059178E-15, 30.00000000000000000 ) ) ;
#112 = CARTESIAN_POINT ( 'NONE',  ( 3.142333204958820020E-14, -1.102182119232617714E-15, 9.000000000000000000 ) ) ;
#113 = DIRECTION ( 'NONE',  ( 3.491481338843133355E-15, -1.224646799147353207E-16, 1.000000000000000000 ) ) ;
#114 = VERTEX_POINT ( 'NONE', #31 ) ;
#115 = ADVANCED_FACE ( 'NONE', ( #174, #160 ), #66, .T. ) ;
#116 = CARTESIAN_POINT ( 'NONE',  ( 3.248163108728531409E-14, 0.7499999999999963363, 9.303108891324553653 ) ) ;
#117 = CIRCLE ( 'NONE', #108, 0.5749999999999997335 ) ;
#118 = PERSON_AND_ORGANIZATION ( #17, #124 ) ;
#119 = APPLICATION_CONTEXT ( 'configuration controlled 3d designs of mechanical parts and assemblies' ) ;
#120 = EDGE_LOOP ( 'NONE', ( #71 ) ) ;
#121 = CALENDAR_DATE ( 2021, 8, 10 ) ;
#122 = SECURITY_CLASSIFICATION_LEVEL ( 'unclassified' ) ;
#123 = FACE_OUTER_BOUND ( 'NONE', #120, .T. ) ;
#124 = ORGANIZATION ( 'UNSPECIFIED', 'UNSPECIFIED', '' ) ;
#125 = DIRECTION ( 'NONE',  ( 4.275831445896958607E-31, 1.000000000000000000, 1.224646799147353207E-16 ) ) ;
#126 = AXIS2_PLACEMENT_3D ( 'NONE', #198, #180, #125 ) ;
#127 = ADVANCED_FACE ( 'NONE', ( #110 ), #84, .T. ) ;
#128 = DIRECTION ( 'NONE',  ( 0.0000000000000000000, -1.000000000000000000, 0.0000000000000000000 ) ) ;
#129 = CARTESIAN_POINT ( 'NONE',  ( 3.142333204958820020E-14, 4.311809375152822833E-33, 9.000000000000000000 ) ) ;
#130 = DIRECTION ( 'NONE',  ( -3.491481338843133355E-15, 1.224646799147353207E-16, -1.000000000000000000 ) ) ;
#131 = PERSON_AND_ORGANIZATION ( #17, #124 ) ;
#132 = PRODUCT_DEFINITION ( 'UNKNOWN', '', #67, #86 ) ;
#133 = CALENDAR_DATE ( 2021, 8, 10 ) ;
#134 = PERSON_AND_ORGANIZATION ( #17, #124 ) ;
#135 = APPROVAL_ROLE ( '' ) ;
#136 = AXIS2_PLACEMENT_3D ( 'NONE', #163, #58, #178 ) ;
#137 = DATE_AND_TIME ( #74, #20 ) ;
#138 = EDGE_LOOP ( 'NONE', ( #56 ) ) ;
#139 = EDGE_CURVE ( 'NONE', #114, #114, #42, .T. ) ;
#140 = COORDINATED_UNIVERSAL_TIME_OFFSET ( 1, 0, .AHEAD. ) ;
#141 = CARTESIAN_POINT ( 'NONE',  ( 1.040461438975253740E-13, -3.649447461459112464E-15, 29.80000000000000071 ) ) ;
#142 = DIRECTION ( 'NONE',  ( 0.0000000000000000000, 1.000000000000000000, 0.0000000000000000000 ) ) ;
#143 = CLOSED_SHELL ( 'NONE', ( #127, #144, #179 ) ) ;
#144 = ADVANCED_FACE ( 'NONE', ( #215, #218 ), #64, .T. ) ;
#145 = DIRECTION ( 'NONE',  ( -3.491481338843133355E-15, 1.224646799147353207E-16, -1.000000000000000000 ) ) ;
#146 = FACE_OUTER_BOUND ( 'NONE', #5, .T. ) ;
#147 = DIRECTION ( 'NONE',  ( 0.0000000000000000000, 1.000000000000000000, 0.0000000000000000000 ) ) ;
#148 = CARTESIAN_POINT ( 'NONE',  ( 0.0000000000000000000, 0.0000000000000000000, 0.0000000000000000000 ) ) ;
#149 = AXIS2_PLACEMENT_3D ( 'NONE', #45, #195, #128 ) ;
#150 = COORDINATED_UNIVERSAL_TIME_OFFSET ( 1, 0, .AHEAD. ) ;
#151 =( NAMED_UNIT ( * ) PLANE_ANGLE_UNIT ( ) SI_UNIT ( $, .RADIAN. ) );
#152 = EDGE_CURVE ( 'NONE', #69, #69, #3, .T. ) ;
#153 = CALENDAR_DATE ( 2021, 8, 10 ) ;
#154 = AXIS2_PLACEMENT_3D ( 'NONE', #148, #186, #68 ) ;
#155 = DATE_AND_TIME ( #133, #61 ) ;
#156 = PERSON_AND_ORGANIZATION ( #17, #124 ) ;
#157 = EDGE_CURVE ( 'NONE', #83, #83, #117, .T. ) ;
#158 = ORIENTED_EDGE ( 'NONE', *, *, #157, .F. ) ;
#159 = PERSON_AND_ORGANIZATION_ROLE ( 'design_supplier' ) ;
#160 = FACE_BOUND ( 'NONE', #89, .T. ) ;
#161 = CC_DESIGN_DATE_AND_TIME_ASSIGNMENT ( #137, #106, ( #101 ) ) ;
#162 = AXIS2_PLACEMENT_3D ( 'NONE', #220, #109, #44 ) ;
#163 = CARTESIAN_POINT ( 'NONE',  ( 1.159089422239702892E-15, -4.065538415112182041E-17, 0.3319764047840380039 ) ) ;
#164 = EDGE_LOOP ( 'NONE', ( #158 ) ) ;
#165 = EDGE_LOOP ( 'NONE', ( #95 ) ) ;
#166 = PERSON_AND_ORGANIZATION_ROLE ( 'creator' ) ;
#167 = PERSON_AND_ORGANIZATION_ROLE ( 'design_owner' ) ;
#168 =( LENGTH_UNIT ( ) NAMED_UNIT ( * ) SI_UNIT ( .MILLI., .METRE. ) );
#169 = APPROVAL ( #35, 'UNSPECIFIED' ) ;
#170 = VERTEX_POINT ( 'NONE', #183 ) ;
#171 = APPROVAL_DATE_TIME ( #103, #90 ) ;
#172 = CC_DESIGN_PERSON_AND_ORGANIZATION_ASSIGNMENT ( #131, #167, ( #204 ) ) ;
#173 = CALENDAR_DATE ( 2021, 8, 10 ) ;
#174 = FACE_OUTER_BOUND ( 'NONE', #65, .T. ) ;
#175 = PERSON_AND_ORGANIZATION ( #17, #124 ) ;
#176 = DIRECTION ( 'NONE',  ( 0.0000000000000000000, 1.000000000000000000, 0.0000000000000000000 ) ) ;
#177 = CIRCLE ( 'NONE', #188, 0.5749999999999989564 ) ;
#178 = DIRECTION ( 'NONE',  ( -3.349443381543025101E-31, -1.000000000000000000, -9.427844978134838690E-17 ) ) ;
#179 = ADVANCED_FACE ( 'NONE', ( #94 ), #181, .T. ) ;
#180 = DIRECTION ( 'NONE',  ( -3.491481338843133355E-15, 1.224646799147353207E-16, -1.000000000000000000 ) ) ;
#181 = PLANE ( 'NONE',  #107 ) ;
#182 = DIRECTION ( 'NONE',  ( -3.491481338843133355E-15, 1.224646799147353207E-16, -1.000000000000000000 ) ) ;
#183 = CARTESIAN_POINT ( 'NONE',  ( 1.047444401652940007E-13, 0.5499999999999963807, 30.00000000000000000 ) ) ;
#184 = DIRECTION ( 'NONE',  ( 4.275831445896958607E-31, 1.000000000000000000, 1.224646799147353207E-16 ) ) ;
#185 = CC_DESIGN_APPROVAL ( #169, ( #67 ) ) ;
#186 = DIRECTION ( 'NONE',  ( 0.0000000000000000000, 0.0000000000000000000, 1.000000000000000000 ) ) ;
#187 = ORIENTED_EDGE ( 'NONE', *, *, #139, .F. ) ;
#188 = AXIS2_PLACEMENT_3D ( 'NONE', #80, #145, #13 ) ;
#189 = DATE_AND_TIME ( #121, #16 ) ;
#190 = UNCERTAINTY_MEASURE_WITH_UNIT (LENGTH_MEASURE( 1.000000000000000082E-05 ), #168, 'distance_accuracy_value', 'NONE');
#191 = APPROVAL_ROLE ( '' ) ;
#192 = FACE_OUTER_BOUND ( 'NONE', #210, .T. ) ;
#193 = LOCAL_TIME ( 7, 53, 48.00000000000000000, #39 ) ;
#194 = ADVANCED_BREP_SHAPE_REPRESENTATION ( '39035', ( #104, #38, #154 ), #202 ) ;
#195 = DIRECTION ( 'NONE',  ( 3.491481338843133355E-15, -1.224646799147353207E-16, 1.000000000000000000 ) ) ;
#196 = CC_DESIGN_PERSON_AND_ORGANIZATION_ASSIGNMENT ( #156, #102, ( #101 ) ) ;
#197 = CARTESIAN_POINT ( 'NONE',  ( 1.047444401652940007E-13, -3.673940397442059178E-15, 30.00000000000000000 ) ) ;
#198 = CARTESIAN_POINT ( 'NONE',  ( 0.0000000000000000000, 0.0000000000000000000, 0.0000000000000000000 ) ) ;
#199 = ADVANCED_FACE ( 'NONE', ( #98 ), #50, .F. ) ;
#200 = CIRCLE ( 'NONE', #162, 0.5749999999999997335 ) ;
#201 = DIRECTION ( 'NONE',  ( 3.491481338843133355E-15, -1.224646799147353207E-16, 1.000000000000000000 ) ) ;
#202 =( GEOMETRIC_REPRESENTATION_CONTEXT ( 3 ) GLOBAL_UNCERTAINTY_ASSIGNED_CONTEXT ( ( #190 ) ) GLOBAL_UNIT_ASSIGNED_CONTEXT ( ( #168, #151, #51 ) ) REPRESENTATION_CONTEXT ( 'NONE', 'WORKASPACE' ) );
#203 = APPROVAL_STATUS ( 'not_yet_approved' ) ;
#204 = PRODUCT ( '39035', '39035', '', ( #96 ) ) ;
#205 = CARTESIAN_POINT ( 'NONE',  ( 3.142333204958820020E-14, 4.311809375152822833E-33, 9.000000000000000000 ) ) ;
#206 = CARTESIAN_POINT ( 'NONE',  ( 1.047444401652940007E-13, 4.124339402320052999E-33, 30.00000000000000000 ) ) ;
#207 = AXIS2_PLACEMENT_3D ( 'NONE', #111, #24, #176 ) ;
#208 = APPROVAL_PERSON_ORGANIZATION ( #175, #90, #191 ) ;
#209 = COORDINATED_UNIVERSAL_TIME_OFFSET ( 1, 0, .AHEAD. ) ;
#210 = EDGE_LOOP ( 'NONE', ( #76 ) ) ;
#211 = COORDINATED_UNIVERSAL_TIME_OFFSET ( 1, 0, .AHEAD. ) ;
#212 = APPROVAL_STATUS ( 'not_yet_approved' ) ;
#213 = APPLICATION_CONTEXT ( 'configuration controlled 3d designs of mechanical parts and assemblies' ) ;
#214 = FACE_BOUND ( 'NONE', #164, .T. ) ;
#215 = FACE_OUTER_BOUND ( 'NONE', #138, .T. ) ;
#216 = CC_DESIGN_APPROVAL ( #90, ( #101 ) ) ;
#217 = LOCAL_TIME ( 7, 53, 48.00000000000000000, #209 ) ;
#218 = FACE_OUTER_BOUND ( 'NONE', #54, .T. ) ;
#219 = PRODUCT_RELATED_PRODUCT_CATEGORY ( 'detail', '', ( #204 ) ) ;
#220 = CARTESIAN_POINT ( 'NONE',  ( 3.142333204958820020E-14, -1.102182119232617714E-15, 9.000000000000000000 ) ) ;
#221 = PLANE ( 'NONE',  #36 ) ;
#222 = CIRCLE ( 'NONE', #97, 0.5500000000000000444 ) ;
#223 = VERTEX_POINT ( 'NONE', #87 ) ;
ENDSEC;
END-ISO-10303-21;
