ISO-10303-21;
HEADER;
FILE_DESCRIPTION (( 'STEP AP203' ),
    '1' );
FILE_NAME ('39034.step',
    '2021-10-08T05:53:47',
    ( '' ),
    ( '' ),
    'SwSTEP 2.0',
    'SolidWorks 2019',
    '' );
FILE_SCHEMA (( 'CONFIG_CONTROL_DESIGN' ));
ENDSEC;

DATA;
#1 = ORIENTED_EDGE ( 'NONE', *, *, #219, .T. ) ;
#2 = PLANE ( 'NONE',  #47 ) ;
#3 = EDGE_LOOP ( 'NONE', ( #171 ) ) ;
#4 = CONICAL_SURFACE ( 'NONE', #36, 0.5500000000000000444, 0.7853981633974512766 ) ;
#5 = VERTEX_POINT ( 'NONE', #52 ) ;
#6 = EDGE_LOOP ( 'NONE', ( #37 ) ) ;
#7 = FACE_OUTER_BOUND ( 'NONE', #6, .T. ) ;
#8 = VERTEX_POINT ( 'NONE', #27 ) ;
#9 = EDGE_LOOP ( 'NONE', ( #1 ) ) ;
#10 = CLOSED_SHELL ( 'NONE', ( #157, #145, #21 ) ) ;
#11 = DIRECTION ( 'NONE',  ( -4.275831445896958607E-31, -1.000000000000000000, -1.224646799147353207E-16 ) ) ;
#12 = CARTESIAN_POINT ( 'NONE',  ( 3.263281666409918300E-14, -1.144605128781614158E-15, 9.346410161513775350 ) ) ;
#13 = CALENDAR_DATE ( 2021, 8, 10 ) ;
#14 = DIRECTION ( 'NONE',  ( -4.275831445896958607E-31, -1.000000000000000000, -1.224646799147353207E-16 ) ) ;
#15 = CC_DESIGN_PERSON_AND_ORGANIZATION_ASSIGNMENT ( #101, #17, ( #161 ) ) ;
#16 = CC_DESIGN_PERSON_AND_ORGANIZATION_ASSIGNMENT ( #134, #148, ( #182 ) ) ;
#17 = PERSON_AND_ORGANIZATION_ROLE ( 'creator' ) ;
#18 = AXIS2_PLACEMENT_3D ( 'NONE', #200, #29, #14 ) ;
#19 = DATE_AND_TIME ( #78, #107 ) ;
#20 = PERSON_AND_ORGANIZATION_ROLE ( 'creator' ) ;
#21 = ADVANCED_FACE ( 'NONE', ( #195 ), #160, .T. ) ;
#22 = CC_DESIGN_DATE_AND_TIME_ASSIGNMENT ( #188, #204, ( #182 ) ) ;
#23 = CARTESIAN_POINT ( 'NONE',  ( 1.108694229968411745E-15, -3.888775875324696857E-17, 0.3175426480542972718 ) ) ;
#24 = EDGE_LOOP ( 'NONE', ( #140 ) ) ;
#25 = LOCAL_TIME ( 7, 53, 47.00000000000000000, #183 ) ;
#26 = FACE_OUTER_BOUND ( 'NONE', #155, .T. ) ;
#27 = CARTESIAN_POINT ( 'NONE',  ( 1.108694229968411942E-15, 0.5499999999999989342, 0.3175426480542973273 ) ) ;
#28 = FACE_OUTER_BOUND ( 'NONE', #51, .T. ) ;
#29 = DIRECTION ( 'NONE',  ( 3.491481338843133355E-15, -1.224646799147353207E-16, 1.000000000000000000 ) ) ;
#30 = MANIFOLD_SOLID_BREP ( 'Corps-Déplacer/Copier1[2]', #10 ) ;
#31 = DIRECTION ( 'NONE',  ( -3.491481338843133355E-15, 1.224646799147353207E-16, -1.000000000000000000 ) ) ;
#32 = CARTESIAN_POINT ( 'NONE',  ( 3.142333204958820020E-14, -1.102182119232617714E-15, 9.000000000000000000 ) ) ;
#33 = PERSON_AND_ORGANIZATION ( #122, #68 ) ;
#34 = PERSON_AND_ORGANIZATION ( #122, #68 ) ;
#35 = AXIS2_PLACEMENT_3D ( 'NONE', #213, #193, #84 ) ;
#36 = AXIS2_PLACEMENT_3D ( 'NONE', #209, #117, #126 ) ;
#37 = ORIENTED_EDGE ( 'NONE', *, *, #219, .F. ) ;
#38 = CC_DESIGN_PERSON_AND_ORGANIZATION_ASSIGNMENT ( #168, #20, ( #131 ) ) ;
#39 = CARTESIAN_POINT ( 'NONE',  ( 3.142333204958820020E-14, 4.124339402320101579E-33, 9.000000000000000000 ) ) ;
#40 = DIRECTION ( 'NONE',  ( -3.491481338843133355E-15, 1.224646799147353207E-16, -1.000000000000000000 ) ) ;
#41 = VERTEX_POINT ( 'NONE', #86 ) ;
#42 = DIRECTION ( 'NONE',  ( 0.0000000000000000000, 1.000000000000000000, 0.0000000000000000000 ) ) ;
#43 = APPROVAL_PERSON_ORGANIZATION ( #147, #88, #216 ) ;
#44 = DIRECTION ( 'NONE',  ( 0.0000000000000000000, 1.000000000000000000, 0.0000000000000000000 ) ) ;
#45 = SECURITY_CLASSIFICATION_LEVEL ( 'unclassified' ) ;
#46 = APPROVAL_DATE_TIME ( #165, #88 ) ;
#47 = AXIS2_PLACEMENT_3D ( 'NONE', #39, #125, #11 ) ;
#48 = EDGE_CURVE ( 'NONE', #41, #41, #164, .T. ) ;
#49 = CIRCLE ( 'NONE', #35, 0.5500000000000000444 ) ;
#50 = CARTESIAN_POINT ( 'NONE',  ( 1.047444401652940007E-13, 4.124339402320052999E-33, 30.00000000000000000 ) ) ;
#51 = EDGE_LOOP ( 'NONE', ( #118 ) ) ;
#52 = CARTESIAN_POINT ( 'NONE',  ( 3.263281666409918300E-14, 0.7499999999999963363, 9.346410161513775350 ) ) ;
#53 = DIRECTION ( 'NONE',  ( 4.275831445896958607E-31, 1.000000000000000000, 1.224646799147353207E-16 ) ) ;
#54 = FACE_OUTER_BOUND ( 'NONE', #190, .T. ) ;
#55 = DIRECTION ( 'NONE',  ( -3.491481338843133355E-15, 1.224646799147353207E-16, -1.000000000000000000 ) ) ;
#56 = CC_DESIGN_APPROVAL ( #189, ( #161 ) ) ;
#57 = AXIS2_PLACEMENT_3D ( 'NONE', #139, #210, #61 ) ;
#58 = PERSON_AND_ORGANIZATION_ROLE ( 'design_supplier' ) ;
#59 = COORDINATED_UNIVERSAL_TIME_OFFSET ( 1, 0, .AHEAD. ) ;
#60 = UNCERTAINTY_MEASURE_WITH_UNIT (LENGTH_MEASURE( 1.000000000000000082E-05 ), #197, 'distance_accuracy_value', 'NONE');
#61 = DIRECTION ( 'NONE',  ( 4.275831445896958607E-31, 1.000000000000000000, 1.224646799147352961E-16 ) ) ;
#62 = CIRCLE ( 'NONE', #129, 0.7500000000000000000 ) ;
#63 = EDGE_LOOP ( 'NONE', ( #206 ) ) ;
#64 = VERTEX_POINT ( 'NONE', #99 ) ;
#65 = ADVANCED_BREP_SHAPE_REPRESENTATION ( '39034', ( #173, #30, #93 ), #154 ) ;
#66 = DIRECTION ( 'NONE',  ( -3.501690807976799148E-31, -1.000000000000000000, -9.856383386231877316E-17 ) ) ;
#67 = EDGE_LOOP ( 'NONE', ( #192 ) ) ;
#68 = ORGANIZATION ( 'UNSPECIFIED', 'UNSPECIFIED', '' ) ;
#69 = APPLICATION_PROTOCOL_DEFINITION ( 'international standard', 'config_control_design', 1994, #114 ) ;
#70 = DIRECTION ( 'NONE',  ( 3.491481338843133355E-15, -1.224646799147353207E-16, 1.000000000000000000 ) ) ;
#71 = APPROVAL_STATUS ( 'not_yet_approved' ) ;
#72 = DIRECTION ( 'NONE',  ( -3.491481338843133355E-15, 1.224646799147353207E-16, -1.000000000000000000 ) ) ;
#73 = COORDINATED_UNIVERSAL_TIME_OFFSET ( 1, 0, .AHEAD. ) ;
#74 = CC_DESIGN_APPROVAL ( #88, ( #131 ) ) ;
#75 = APPROVAL_STATUS ( 'not_yet_approved' ) ;
#76 = CIRCLE ( 'NONE', #133, 0.7499999999999975575 ) ;
#77 = APPROVAL_ROLE ( '' ) ;
#78 = CALENDAR_DATE ( 2021, 8, 10 ) ;
#79 = DESIGN_CONTEXT ( 'detailed design', #211, 'design' ) ;
#80 = CONICAL_SURFACE ( 'NONE', #166, 0.5499999999999989342, 1.047197551196592746 ) ;
#81 = EDGE_CURVE ( 'NONE', #64, #64, #180, .T. ) ;
#82 = EDGE_LOOP ( 'NONE', ( #137 ) ) ;
#83 = DIRECTION ( 'NONE',  ( 0.0000000000000000000, 0.0000000000000000000, 1.000000000000000000 ) ) ;
#84 = DIRECTION ( 'NONE',  ( 0.0000000000000000000, 1.000000000000000000, 0.0000000000000000000 ) ) ;
#85 = EDGE_CURVE ( 'NONE', #8, #8, #222, .T. ) ;
#86 = CARTESIAN_POINT ( 'NONE',  ( 3.142333204958820020E-14, 0.5500000000000001554, 9.000000000000000000 ) ) ;
#87 = CARTESIAN_POINT ( 'NONE',  ( 1.040461438975253740E-13, 0.7499999999999963363, 29.80000000000000071 ) ) ;
#88 = APPROVAL ( #94, 'UNSPECIFIED' ) ;
#89 = FACE_OUTER_BOUND ( 'NONE', #63, .T. ) ;
#90 = PERSON_AND_ORGANIZATION ( #122, #68 ) ;
#91 = CC_DESIGN_PERSON_AND_ORGANIZATION_ASSIGNMENT ( #205, #58, ( #161 ) ) ;
#92 = APPROVAL_DATE_TIME ( #19, #189 ) ;
#93 = AXIS2_PLACEMENT_3D ( 'NONE', #172, #83, #152 ) ;
#94 = APPROVAL_STATUS ( 'not_yet_approved' ) ;
#95 = EDGE_CURVE ( 'NONE', #5, #5, #76, .T. ) ;
#96 = DIRECTION ( 'NONE',  ( -3.491481338843133355E-15, 1.224646799147353207E-16, -1.000000000000000000 ) ) ;
#97 = ADVANCED_FACE ( 'NONE', ( #215, #106 ), #184, .T. ) ;
#98 = DIRECTION ( 'NONE',  ( 0.0000000000000000000, 1.000000000000000000, 0.0000000000000000000 ) ) ;
#99 = CARTESIAN_POINT ( 'NONE',  ( 3.142333204958820020E-14, 0.5500000000000001554, 9.000000000000000000 ) ) ;
#100 = DIRECTION ( 'NONE',  ( 4.275831445896959482E-31, 1.000000000000000000, 1.224646799147353207E-16 ) ) ;
#101 = PERSON_AND_ORGANIZATION ( #122, #68 ) ;
#102 = CARTESIAN_POINT ( 'NONE',  ( 3.142333204958820020E-14, -1.102182119232617714E-15, 9.000000000000000000 ) ) ;
#103 = AXIS2_PLACEMENT_3D ( 'NONE', #12, #70, #143 ) ;
#104 = LOCAL_TIME ( 7, 53, 47.00000000000000000, #59 ) ;
#105 = CALENDAR_DATE ( 2021, 8, 10 ) ;
#106 = FACE_OUTER_BOUND ( 'NONE', #24, .T. ) ;
#107 = LOCAL_TIME ( 7, 53, 47.00000000000000000, #186 ) ;
#108 = MECHANICAL_CONTEXT ( 'NONE', #114, 'mechanical' ) ;
#109 = ADVANCED_FACE ( 'NONE', ( #178, #89 ), #207, .T. ) ;
#110 = DATE_AND_TIME ( #203, #170 ) ;
#111 = AXIS2_PLACEMENT_3D ( 'NONE', #32, #72, #217 ) ;
#112 = APPROVAL_PERSON_ORGANIZATION ( #90, #189, #220 ) ;
#113 = CC_DESIGN_DATE_AND_TIME_ASSIGNMENT ( #167, #201, ( #131 ) ) ;
#114 = APPLICATION_CONTEXT ( 'configuration controlled 3d designs of mechanical parts and assemblies' ) ;
#115 = EDGE_LOOP ( 'NONE', ( #174 ) ) ;
#116 = APPROVAL ( #71, 'UNSPECIFIED' ) ;
#117 = DIRECTION ( 'NONE',  ( -3.491481338843133355E-15, 1.224646799147353207E-16, -1.000000000000000000 ) ) ;
#118 = ORIENTED_EDGE ( 'NONE', *, *, #169, .F. ) ;
#119 = CARTESIAN_POINT ( 'NONE',  ( 1.040461438975253740E-13, -3.649447461459112464E-15, 29.80000000000000071 ) ) ;
#120 = ORIENTED_EDGE ( 'NONE', *, *, #48, .T. ) ;
#121 = VERTEX_POINT ( 'NONE', #196 ) ;
#122 = PERSON ( 'UNSPECIFIED', 'UNSPECIFIED', 'UNSPECIFIED', ('UNSPECIFIED'), ('UNSPECIFIED'), ('UNSPECIFIED') ) ;
#123 = AXIS2_PLACEMENT_3D ( 'NONE', #202, #181, #162 ) ;
#124 = CC_DESIGN_SECURITY_CLASSIFICATION ( #182, ( #161 ) ) ;
#125 = DIRECTION ( 'NONE',  ( 3.491481338843133355E-15, -1.224646799147353207E-16, 1.000000000000000000 ) ) ;
#126 = DIRECTION ( 'NONE',  ( 0.0000000000000000000, 1.000000000000000000, 0.0000000000000000000 ) ) ;
#127 = CARTESIAN_POINT ( 'NONE',  ( 3.263281666409918300E-14, -1.144605128781614158E-15, 9.346410161513775350 ) ) ;
#128 = AXIS2_PLACEMENT_3D ( 'NONE', #102, #55, #42 ) ;
#129 = AXIS2_PLACEMENT_3D ( 'NONE', #119, #96, #98 ) ;
#130 = CALENDAR_DATE ( 2021, 8, 10 ) ;
#131 = PRODUCT_DEFINITION ( 'UNKNOWN', '', #161, #79 ) ;
#132 = ADVANCED_FACE ( 'NONE', ( #54 ), #2, .F. ) ;
#133 = AXIS2_PLACEMENT_3D ( 'NONE', #127, #31, #44 ) ;
#134 = PERSON_AND_ORGANIZATION ( #122, #68 ) ;
#135 = PRODUCT ( '39034', '39034', '', ( #108 ) ) ;
#136 = SHAPE_DEFINITION_REPRESENTATION ( #187, #65 ) ;
#137 = ORIENTED_EDGE ( 'NONE', *, *, #81, .F. ) ;
#138 = FACE_OUTER_BOUND ( 'NONE', #115, .T. ) ;
#139 = CARTESIAN_POINT ( 'NONE',  ( 0.0000000000000000000, 0.0000000000000000000, 0.0000000000000000000 ) ) ;
#140 = ORIENTED_EDGE ( 'NONE', *, *, #169, .T. ) ;
#141 = CC_DESIGN_APPROVAL ( #116, ( #182 ) ) ;
#142 =( NAMED_UNIT ( * ) PLANE_ANGLE_UNIT ( ) SI_UNIT ( $, .RADIAN. ) );
#143 = DIRECTION ( 'NONE',  ( 0.0000000000000000000, -1.000000000000000000, 0.0000000000000000000 ) ) ;
#144 = APPROVAL_DATE_TIME ( #110, #116 ) ;
#145 = ADVANCED_FACE ( 'NONE', ( #138, #176 ), #212, .T. ) ;
#146 = PERSON_AND_ORGANIZATION_ROLE ( 'design_owner' ) ;
#147 = PERSON_AND_ORGANIZATION ( #122, #68 ) ;
#148 = PERSON_AND_ORGANIZATION_ROLE ( 'classification_officer' ) ;
#149 = ADVANCED_FACE ( 'NONE', ( #7 ), #158, .F. ) ;
#150 = PRODUCT_RELATED_PRODUCT_CATEGORY ( 'detail', '', ( #135 ) ) ;
#151 = ORIENTED_EDGE ( 'NONE', *, *, #48, .F. ) ;
#152 = DIRECTION ( 'NONE',  ( 1.000000000000000000, 0.0000000000000000000, 0.0000000000000000000 ) ) ;
#153 = DIRECTION ( 'NONE',  ( -3.491481338843133355E-15, 1.224646799147353207E-16, -1.000000000000000000 ) ) ;
#154 =( GEOMETRIC_REPRESENTATION_CONTEXT ( 3 ) GLOBAL_UNCERTAINTY_ASSIGNED_CONTEXT ( ( #60 ) ) GLOBAL_UNIT_ASSIGNED_CONTEXT ( ( #197, #142, #191 ) ) REPRESENTATION_CONTEXT ( 'NONE', 'WORKASPACE' ) );
#155 = EDGE_LOOP ( 'NONE', ( #159 ) ) ;
#156 = VERTEX_POINT ( 'NONE', #87 ) ;
#157 = ADVANCED_FACE ( 'NONE', ( #26 ), #80, .T. ) ;
#158 = PLANE ( 'NONE',  #175 ) ;
#159 = ORIENTED_EDGE ( 'NONE', *, *, #85, .T. ) ;
#160 = PLANE ( 'NONE',  #18 ) ;
#161 = PRODUCT_DEFINITION_FORMATION_WITH_SPECIFIED_SOURCE ( 'ANY', '', #135, .NOT_KNOWN. ) ;
#162 = DIRECTION ( 'NONE',  ( 3.501690807976799148E-31, 1.000000000000000000, 9.856383386231877316E-17 ) ) ;
#163 = APPLICATION_PROTOCOL_DEFINITION ( 'international standard', 'config_control_design', 1994, #211 ) ;
#164 = CIRCLE ( 'NONE', #111, 0.5500000000000012657 ) ;
#165 = DATE_AND_TIME ( #105, #104 ) ;
#166 = AXIS2_PLACEMENT_3D ( 'NONE', #23, #199, #66 ) ;
#167 = DATE_AND_TIME ( #130, #223 ) ;
#168 = PERSON_AND_ORGANIZATION ( #122, #68 ) ;
#169 = EDGE_CURVE ( 'NONE', #156, #156, #62, .T. ) ;
#170 = LOCAL_TIME ( 7, 53, 47.00000000000000000, #221 ) ;
#171 = ORIENTED_EDGE ( 'NONE', *, *, #81, .T. ) ;
#172 = CARTESIAN_POINT ( 'NONE',  ( 0.0000000000000000000, 0.0000000000000000000, 0.0000000000000000000 ) ) ;
#173 = MANIFOLD_SOLID_BREP ( 'Corps-Déplacer/Copier1[1]', #218 ) ;
#174 = ORIENTED_EDGE ( 'NONE', *, *, #85, .F. ) ;
#175 = AXIS2_PLACEMENT_3D ( 'NONE', #50, #153, #53 ) ;
#176 = FACE_OUTER_BOUND ( 'NONE', #3, .T. ) ;
#177 = EDGE_LOOP ( 'NONE', ( #151 ) ) ;
#178 = FACE_BOUND ( 'NONE', #177, .T. ) ;
#179 = ADVANCED_FACE ( 'NONE', ( #28, #214 ), #4, .T. ) ;
#180 = CIRCLE ( 'NONE', #128, 0.5500000000000012657 ) ;
#181 = DIRECTION ( 'NONE',  ( -3.491481338843133355E-15, 1.224646799147353207E-16, -1.000000000000000000 ) ) ;
#182 = SECURITY_CLASSIFICATION ( '', '', #45 ) ;
#183 = COORDINATED_UNIVERSAL_TIME_OFFSET ( 1, 0, .AHEAD. ) ;
#184 = CYLINDRICAL_SURFACE ( 'NONE', #185, 0.7499999999999986677 ) ;
#185 = AXIS2_PLACEMENT_3D ( 'NONE', #198, #40, #100 ) ;
#186 = COORDINATED_UNIVERSAL_TIME_OFFSET ( 1, 0, .AHEAD. ) ;
#187 = PRODUCT_DEFINITION_SHAPE ( 'NONE', 'NONE',  #131 ) ;
#188 = DATE_AND_TIME ( #13, #25 ) ;
#189 = APPROVAL ( #75, 'UNSPECIFIED' ) ;
#190 = EDGE_LOOP ( 'NONE', ( #120 ) ) ;
#191 =( NAMED_UNIT ( * ) SI_UNIT ( $, .STERADIAN. ) SOLID_ANGLE_UNIT ( ) );
#192 = ORIENTED_EDGE ( 'NONE', *, *, #95, .F. ) ;
#193 = DIRECTION ( 'NONE',  ( -3.491481338843133355E-15, 1.224646799147353207E-16, -1.000000000000000000 ) ) ;
#194 = CC_DESIGN_PERSON_AND_ORGANIZATION_ASSIGNMENT ( #34, #146, ( #135 ) ) ;
#195 = FACE_OUTER_BOUND ( 'NONE', #82, .T. ) ;
#196 = CARTESIAN_POINT ( 'NONE',  ( 1.047444401652940007E-13, 0.5499999999999963807, 30.00000000000000000 ) ) ;
#197 =( LENGTH_UNIT ( ) NAMED_UNIT ( * ) SI_UNIT ( .MILLI., .METRE. ) );
#198 = CARTESIAN_POINT ( 'NONE',  ( 0.0000000000000000000, 0.0000000000000000000, 0.0000000000000000000 ) ) ;
#199 = DIRECTION ( 'NONE',  ( 3.491481338843133355E-15, -1.224646799147353207E-16, 1.000000000000000000 ) ) ;
#200 = CARTESIAN_POINT ( 'NONE',  ( 3.142333204958820020E-14, 4.124339402320101579E-33, 9.000000000000000000 ) ) ;
#201 = DATE_TIME_ROLE ( 'creation_date' ) ;
#202 = CARTESIAN_POINT ( 'NONE',  ( 1.108694229968411745E-15, -3.888775875324696857E-17, 0.3175426480542972718 ) ) ;
#203 = CALENDAR_DATE ( 2021, 8, 10 ) ;
#204 = DATE_TIME_ROLE ( 'classification_date' ) ;
#205 = PERSON_AND_ORGANIZATION ( #122, #68 ) ;
#206 = ORIENTED_EDGE ( 'NONE', *, *, #95, .T. ) ;
#207 = CONICAL_SURFACE ( 'NONE', #103, 0.7499999999999975575, 0.5235987755982896008 ) ;
#208 = APPROVAL_PERSON_ORGANIZATION ( #33, #116, #77 ) ;
#209 = CARTESIAN_POINT ( 'NONE',  ( 1.047444401652940007E-13, -3.673940397442059178E-15, 30.00000000000000000 ) ) ;
#210 = DIRECTION ( 'NONE',  ( -3.491481338843133355E-15, 1.224646799147353207E-16, -1.000000000000000000 ) ) ;
#211 = APPLICATION_CONTEXT ( 'configuration controlled 3d designs of mechanical parts and assemblies' ) ;
#212 = CYLINDRICAL_SURFACE ( 'NONE', #57, 0.5500000000000001554 ) ;
#213 = CARTESIAN_POINT ( 'NONE',  ( 1.047444401652940007E-13, -3.673940397442059178E-15, 30.00000000000000000 ) ) ;
#214 = FACE_BOUND ( 'NONE', #9, .T. ) ;
#215 = FACE_OUTER_BOUND ( 'NONE', #67, .T. ) ;
#216 = APPROVAL_ROLE ( '' ) ;
#217 = DIRECTION ( 'NONE',  ( 0.0000000000000000000, 1.000000000000000000, 0.0000000000000000000 ) ) ;
#218 = CLOSED_SHELL ( 'NONE', ( #132, #109, #97, #179, #149 ) ) ;
#219 = EDGE_CURVE ( 'NONE', #121, #121, #49, .T. ) ;
#220 = APPROVAL_ROLE ( '' ) ;
#221 = COORDINATED_UNIVERSAL_TIME_OFFSET ( 1, 0, .AHEAD. ) ;
#222 = CIRCLE ( 'NONE', #123, 0.5499999999999989342 ) ;
#223 = LOCAL_TIME ( 7, 53, 47.00000000000000000, #73 ) ;
ENDSEC;
END-ISO-10303-21;
