ISO-10303-21;
HEADER;
FILE_DESCRIPTION (( 'STEP AP203' ),
    '1' );
FILE_NAME ('39033.step',
    '2021-10-08T05:53:47',
    ( '' ),
    ( '' ),
    'SwSTEP 2.0',
    'SolidWorks 2019',
    '' );
FILE_SCHEMA (( 'CONFIG_CONTROL_DESIGN' ));
ENDSEC;

DATA;
#1 = DIRECTION ( 'NONE',  ( -3.491481338843133355E-15, 1.224646799147353207E-16, -1.000000000000000000 ) ) ;
#2 = CONICAL_SURFACE ( 'NONE', #90, 0.5249999999999994671, 1.047197551196592746 ) ;
#3 = PRODUCT_DEFINITION ( 'UNKNOWN', '', #40, #85 ) ;
#4 = DATE_AND_TIME ( #78, #138 ) ;
#5 = DIRECTION ( 'NONE',  ( 1.000000000000000000, 0.0000000000000000000, 0.0000000000000000000 ) ) ;
#6 = PERSON_AND_ORGANIZATION_ROLE ( 'creator' ) ;
#7 = PERSON_AND_ORGANIZATION_ROLE ( 'creator' ) ;
#8 = EDGE_LOOP ( 'NONE', ( #121 ) ) ;
#9 = APPROVAL_PERSON_ORGANIZATION ( #20, #135, #41 ) ;
#10 = CC_DESIGN_PERSON_AND_ORGANIZATION_ASSIGNMENT ( #97, #152, ( #40 ) ) ;
#11 = ADVANCED_FACE ( 'NONE', ( #58 ), #122, .T. ) ;
#12 = CARTESIAN_POINT ( 'NONE',  ( 3.278400224091305190E-14, -1.149908004975238590E-15, 9.389711431702997047 ) ) ;
#13 = DIRECTION ( 'NONE',  ( 0.0000000000000000000, 1.000000000000000000, 0.0000000000000000000 ) ) ;
#14 = DIRECTION ( 'NONE',  ( 0.0000000000000000000, -1.000000000000000000, 0.0000000000000000000 ) ) ;
#15 = CLOSED_SHELL ( 'NONE', ( #222, #211, #11 ) ) ;
#16 = CARTESIAN_POINT ( 'NONE',  ( 0.0000000000000000000, 0.0000000000000000000, 0.0000000000000000000 ) ) ;
#17 = CARTESIAN_POINT ( 'NONE',  ( 1.040461438975253740E-13, 0.7499999999999963363, 29.80000000000000071 ) ) ;
#18 = APPLICATION_PROTOCOL_DEFINITION ( 'international standard', 'config_control_design', 1994, #55 ) ;
#19 = COORDINATED_UNIVERSAL_TIME_OFFSET ( 1, 0, .AHEAD. ) ;
#20 = PERSON_AND_ORGANIZATION ( #79, #69 ) ;
#21 = APPROVAL_ROLE ( '' ) ;
#22 = CONICAL_SURFACE ( 'NONE', #25, 0.5500000000000000444, 0.7853981633974512766 ) ;
#23 = DATE_AND_TIME ( #133, #83 ) ;
#24 = ORIENTED_EDGE ( 'NONE', *, *, #180, .T. ) ;
#25 = AXIS2_PLACEMENT_3D ( 'NONE', #218, #162, #60 ) ;
#26 = EDGE_LOOP ( 'NONE', ( #179 ) ) ;
#27 = ADVANCED_FACE ( 'NONE', ( #120, #165 ), #63, .T. ) ;
#28 = AXIS2_PLACEMENT_3D ( 'NONE', #62, #125, #32 ) ;
#29 = FACE_OUTER_BOUND ( 'NONE', #123, .T. ) ;
#30 = DIRECTION ( 'NONE',  ( 4.275831445896958607E-31, 1.000000000000000000, 1.224646799147353207E-16 ) ) ;
#31 = LOCAL_TIME ( 7, 53, 47.00000000000000000, #19 ) ;
#32 = DIRECTION ( 'NONE',  ( 0.0000000000000000000, 1.000000000000000000, 0.0000000000000000000 ) ) ;
#33 = VERTEX_POINT ( 'NONE', #17 ) ;
#34 =( NAMED_UNIT ( * ) SI_UNIT ( $, .STERADIAN. ) SOLID_ANGLE_UNIT ( ) );
#35 = COORDINATED_UNIVERSAL_TIME_OFFSET ( 1, 0, .AHEAD. ) ;
#36 = CIRCLE ( 'NONE', #45, 0.5249999999999994671 ) ;
#37 = PERSON_AND_ORGANIZATION ( #79, #69 ) ;
#38 = ADVANCED_BREP_SHAPE_REPRESENTATION ( '39033', ( #174, #177, #150 ), #144 ) ;
#39 = CARTESIAN_POINT ( 'NONE',  ( 0.0000000000000000000, 0.0000000000000000000, 0.0000000000000000000 ) ) ;
#40 = PRODUCT_DEFINITION_FORMATION_WITH_SPECIFIED_SOURCE ( 'ANY', '', #129, .NOT_KNOWN. ) ;
#41 = APPROVAL_ROLE ( '' ) ;
#42 = EDGE_LOOP ( 'NONE', ( #136 ) ) ;
#43 = DIRECTION ( 'NONE',  ( 3.491481338843133355E-15, -1.224646799147353207E-16, 1.000000000000000000 ) ) ;
#44 = ADVANCED_FACE ( 'NONE', ( #46, #29 ), #103, .T. ) ;
#45 = AXIS2_PLACEMENT_3D ( 'NONE', #73, #163, #206 ) ;
#46 = FACE_BOUND ( 'NONE', #26, .T. ) ;
#47 = EDGE_CURVE ( 'NONE', #107, #107, #172, .T. ) ;
#48 = AXIS2_PLACEMENT_3D ( 'NONE', #72, #142, #76 ) ;
#49 = DIRECTION ( 'NONE',  ( -3.491481338843133355E-15, 1.224646799147353207E-16, -1.000000000000000000 ) ) ;
#50 = DATE_TIME_ROLE ( 'classification_date' ) ;
#51 = APPROVAL_PERSON_ORGANIZATION ( #190, #145, #21 ) ;
#52 = APPROVAL_ROLE ( '' ) ;
#53 = SECURITY_CLASSIFICATION ( '', '', #168 ) ;
#54 = APPROVAL_DATE_TIME ( #194, #135 ) ;
#55 = APPLICATION_CONTEXT ( 'configuration controlled 3d designs of mechanical parts and assemblies' ) ;
#56 = AXIS2_PLACEMENT_3D ( 'NONE', #203, #161, #186 ) ;
#57 = EDGE_CURVE ( 'NONE', #93, #93, #140, .T. ) ;
#58 = FACE_OUTER_BOUND ( 'NONE', #8, .T. ) ;
#59 = ORIENTED_EDGE ( 'NONE', *, *, #57, .T. ) ;
#60 = DIRECTION ( 'NONE',  ( 0.0000000000000000000, 1.000000000000000000, 0.0000000000000000000 ) ) ;
#61 = CARTESIAN_POINT ( 'NONE',  ( 3.142333204958820020E-14, 0.5249999999999994671, 9.000000000000000000 ) ) ;
#62 = CARTESIAN_POINT ( 'NONE',  ( 1.047444401652940007E-13, -3.673940397442059178E-15, 30.00000000000000000 ) ) ;
#63 = CYLINDRICAL_SURFACE ( 'NONE', #146, 0.7499999999999986677 ) ;
#64 = CC_DESIGN_SECURITY_CLASSIFICATION ( #53, ( #40 ) ) ;
#65 = COORDINATED_UNIVERSAL_TIME_OFFSET ( 1, 0, .AHEAD. ) ;
#66 = APPROVAL_DATE_TIME ( #154, #145 ) ;
#67 = EDGE_CURVE ( 'NONE', #33, #33, #164, .T. ) ;
#68 = ORIENTED_EDGE ( 'NONE', *, *, #47, .T. ) ;
#69 = ORGANIZATION ( 'UNSPECIFIED', 'UNSPECIFIED', '' ) ;
#70 = AXIS2_PLACEMENT_3D ( 'NONE', #131, #49, #147 ) ;
#71 = EDGE_LOOP ( 'NONE', ( #182 ) ) ;
#72 = CARTESIAN_POINT ( 'NONE',  ( 3.142333204958820020E-14, -1.102182119232617714E-15, 9.000000000000000000 ) ) ;
#73 = CARTESIAN_POINT ( 'NONE',  ( 1.058299037697121189E-15, -3.712013335537213522E-17, 0.3031088913245567062 ) ) ;
#74 = DIRECTION ( 'NONE',  ( -3.491481338843133355E-15, 1.224646799147353207E-16, -1.000000000000000000 ) ) ;
#75 = APPLICATION_CONTEXT ( 'configuration controlled 3d designs of mechanical parts and assemblies' ) ;
#76 = DIRECTION ( 'NONE',  ( 0.0000000000000000000, 1.000000000000000000, 0.0000000000000000000 ) ) ;
#77 = VERTEX_POINT ( 'NONE', #149 ) ;
#78 = CALENDAR_DATE ( 2021, 8, 10 ) ;
#79 = PERSON ( 'UNSPECIFIED', 'UNSPECIFIED', 'UNSPECIFIED', ('UNSPECIFIED'), ('UNSPECIFIED'), ('UNSPECIFIED') ) ;
#80 = EDGE_CURVE ( 'NONE', #77, #77, #205, .T. ) ;
#81 = APPROVAL_STATUS ( 'not_yet_approved' ) ;
#82 = CALENDAR_DATE ( 2021, 8, 10 ) ;
#83 = LOCAL_TIME ( 7, 53, 47.00000000000000000, #65 ) ;
#84 = VERTEX_POINT ( 'NONE', #171 ) ;
#85 = DESIGN_CONTEXT ( 'detailed design', #75, 'design' ) ;
#86 = EDGE_LOOP ( 'NONE', ( #160 ) ) ;
#87 = CLOSED_SHELL ( 'NONE', ( #208, #44, #27, #217, #108 ) ) ;
#88 = APPROVAL ( #81, 'UNSPECIFIED' ) ;
#89 = EDGE_LOOP ( 'NONE', ( #59 ) ) ;
#90 = AXIS2_PLACEMENT_3D ( 'NONE', #200, #43, #187 ) ;
#91 = CC_DESIGN_PERSON_AND_ORGANIZATION_ASSIGNMENT ( #153, #207, ( #53 ) ) ;
#92 = FACE_OUTER_BOUND ( 'NONE', #86, .T. ) ;
#93 = VERTEX_POINT ( 'NONE', #61 ) ;
#94 = DIRECTION ( 'NONE',  ( -3.491481338843133355E-15, 1.224646799147353207E-16, -1.000000000000000000 ) ) ;
#95 = FACE_BOUND ( 'NONE', #71, .T. ) ;
#96 = DIRECTION ( 'NONE',  ( 4.275831445896959482E-31, 1.000000000000000000, 1.224646799147353207E-16 ) ) ;
#97 = PERSON_AND_ORGANIZATION ( #79, #69 ) ;
#98 = PERSON_AND_ORGANIZATION ( #79, #69 ) ;
#99 = APPROVAL_STATUS ( 'not_yet_approved' ) ;
#100 = AXIS2_PLACEMENT_3D ( 'NONE', #223, #185, #14 ) ;
#101 = CC_DESIGN_PERSON_AND_ORGANIZATION_ASSIGNMENT ( #113, #7, ( #3 ) ) ;
#102 = PRODUCT_RELATED_PRODUCT_CATEGORY ( 'detail', '', ( #129 ) ) ;
#103 = CONICAL_SURFACE ( 'NONE', #100, 0.7499999999999975575, 0.5235987755982933756 ) ;
#104 = ORIENTED_EDGE ( 'NONE', *, *, #112, .F. ) ;
#105 = APPROVAL_PERSON_ORGANIZATION ( #98, #88, #52 ) ;
#106 = CARTESIAN_POINT ( 'NONE',  ( 1.047444401652940007E-13, 4.124339402320052999E-33, 30.00000000000000000 ) ) ;
#107 = VERTEX_POINT ( 'NONE', #184 ) ;
#108 = ADVANCED_FACE ( 'NONE', ( #166 ), #221, .F. ) ;
#109 = CARTESIAN_POINT ( 'NONE',  ( 3.142333204958820020E-14, -1.102182119232617714E-15, 9.000000000000000000 ) ) ;
#110 = FACE_OUTER_BOUND ( 'NONE', #158, .T. ) ;
#111 = DIRECTION ( 'NONE',  ( -4.275831445896958607E-31, -1.000000000000000000, -1.224646799147353207E-16 ) ) ;
#112 = EDGE_CURVE ( 'NONE', #84, #84, #126, .T. ) ;
#113 = PERSON_AND_ORGANIZATION ( #79, #69 ) ;
#114 = MECHANICAL_CONTEXT ( 'NONE', #55, 'mechanical' ) ;
#115 = PERSON_AND_ORGANIZATION ( #79, #69 ) ;
#116 = CC_DESIGN_DATE_AND_TIME_ASSIGNMENT ( #4, #50, ( #53 ) ) ;
#117 = LOCAL_TIME ( 7, 53, 47.00000000000000000, #213 ) ;
#118 = APPROVAL_DATE_TIME ( #23, #88 ) ;
#119 = AXIS2_PLACEMENT_3D ( 'NONE', #109, #148, #13 ) ;
#120 = FACE_OUTER_BOUND ( 'NONE', #139, .T. ) ;
#121 = ORIENTED_EDGE ( 'NONE', *, *, #80, .F. ) ;
#122 = PLANE ( 'NONE',  #220 ) ;
#123 = EDGE_LOOP ( 'NONE', ( #68 ) ) ;
#124 = CYLINDRICAL_SURFACE ( 'NONE', #56, 0.5250000000000000222 ) ;
#125 = DIRECTION ( 'NONE',  ( -3.491481338843133355E-15, 1.224646799147353207E-16, -1.000000000000000000 ) ) ;
#126 = CIRCLE ( 'NONE', #28, 0.5500000000000000444 ) ;
#127 = DIRECTION ( 'NONE',  ( 0.0000000000000000000, 1.000000000000000000, 0.0000000000000000000 ) ) ;
#128 = FACE_OUTER_BOUND ( 'NONE', #89, .T. ) ;
#129 = PRODUCT ( '39033', '39033', '', ( #114 ) ) ;
#130 = CC_DESIGN_PERSON_AND_ORGANIZATION_ASSIGNMENT ( #37, #6, ( #40 ) ) ;
#131 = CARTESIAN_POINT ( 'NONE',  ( 1.040461438975253740E-13, -3.649447461459112464E-15, 29.80000000000000071 ) ) ;
#132 = APPROVAL_STATUS ( 'not_yet_approved' ) ;
#133 = CALENDAR_DATE ( 2021, 8, 10 ) ;
#134 = DIRECTION ( 'NONE',  ( 0.0000000000000000000, 0.0000000000000000000, 1.000000000000000000 ) ) ;
#135 = APPROVAL ( #99, 'UNSPECIFIED' ) ;
#136 = ORIENTED_EDGE ( 'NONE', *, *, #67, .F. ) ;
#137 = AXIS2_PLACEMENT_3D ( 'NONE', #106, #94, #30 ) ;
#138 = LOCAL_TIME ( 7, 53, 47.00000000000000000, #170 ) ;
#139 = EDGE_LOOP ( 'NONE', ( #196 ) ) ;
#140 = CIRCLE ( 'NONE', #48, 0.5250000000000004663 ) ;
#141 = CC_DESIGN_DATE_AND_TIME_ASSIGNMENT ( #212, #191, ( #3 ) ) ;
#142 = DIRECTION ( 'NONE',  ( -3.491481338843133355E-15, 1.224646799147353207E-16, -1.000000000000000000 ) ) ;
#143 = CARTESIAN_POINT ( 'NONE',  ( 3.142333204958820020E-14, 3.936869429487364589E-33, 9.000000000000000000 ) ) ;
#144 =( GEOMETRIC_REPRESENTATION_CONTEXT ( 3 ) GLOBAL_UNCERTAINTY_ASSIGNED_CONTEXT ( ( #204 ) ) GLOBAL_UNIT_ASSIGNED_CONTEXT ( ( #151, #189, #34 ) ) REPRESENTATION_CONTEXT ( 'NONE', 'WORKASPACE' ) );
#145 = APPROVAL ( #132, 'UNSPECIFIED' ) ;
#146 = AXIS2_PLACEMENT_3D ( 'NONE', #16, #1, #96 ) ;
#147 = DIRECTION ( 'NONE',  ( 0.0000000000000000000, 1.000000000000000000, 0.0000000000000000000 ) ) ;
#148 = DIRECTION ( 'NONE',  ( -3.491481338843133355E-15, 1.224646799147353207E-16, -1.000000000000000000 ) ) ;
#149 = CARTESIAN_POINT ( 'NONE',  ( 3.142333204958820020E-14, 0.5249999999999994671, 9.000000000000000000 ) ) ;
#150 = AXIS2_PLACEMENT_3D ( 'NONE', #39, #134, #5 ) ;
#151 =( LENGTH_UNIT ( ) NAMED_UNIT ( * ) SI_UNIT ( .MILLI., .METRE. ) );
#152 = PERSON_AND_ORGANIZATION_ROLE ( 'design_supplier' ) ;
#153 = PERSON_AND_ORGANIZATION ( #79, #69 ) ;
#154 = DATE_AND_TIME ( #82, #215 ) ;
#155 = CARTESIAN_POINT ( 'NONE',  ( 1.058299037697121387E-15, 0.5249999999999994671, 0.3031088913245567618 ) ) ;
#156 = EDGE_LOOP ( 'NONE', ( #104 ) ) ;
#157 = DIRECTION ( 'NONE',  ( 3.491481338843133355E-15, -1.224646799147353207E-16, 1.000000000000000000 ) ) ;
#158 = EDGE_LOOP ( 'NONE', ( #24 ) ) ;
#159 = CC_DESIGN_APPROVAL ( #145, ( #3 ) ) ;
#160 = ORIENTED_EDGE ( 'NONE', *, *, #180, .F. ) ;
#161 = DIRECTION ( 'NONE',  ( -3.491481338843133355E-15, 1.224646799147353207E-16, -1.000000000000000000 ) ) ;
#162 = DIRECTION ( 'NONE',  ( -3.491481338843133355E-15, 1.224646799147353207E-16, -1.000000000000000000 ) ) ;
#163 = DIRECTION ( 'NONE',  ( -3.491481338843133355E-15, 1.224646799147353207E-16, -1.000000000000000000 ) ) ;
#164 = CIRCLE ( 'NONE', #70, 0.7500000000000000000 ) ;
#165 = FACE_OUTER_BOUND ( 'NONE', #183, .T. ) ;
#166 = FACE_OUTER_BOUND ( 'NONE', #156, .T. ) ;
#167 = AXIS2_PLACEMENT_3D ( 'NONE', #143, #188, #111 ) ;
#168 = SECURITY_CLASSIFICATION_LEVEL ( 'unclassified' ) ;
#169 = APPLICATION_PROTOCOL_DEFINITION ( 'international standard', 'config_control_design', 1994, #75 ) ;
#170 = COORDINATED_UNIVERSAL_TIME_OFFSET ( 1, 0, .AHEAD. ) ;
#171 = CARTESIAN_POINT ( 'NONE',  ( 1.047444401652940007E-13, 0.5499999999999963807, 30.00000000000000000 ) ) ;
#172 = CIRCLE ( 'NONE', #209, 0.7499999999999975575 ) ;
#173 = CALENDAR_DATE ( 2021, 8, 10 ) ;
#174 = MANIFOLD_SOLID_BREP ( 'Corps-Déplacer/Copier1[1]', #87 ) ;
#175 = CC_DESIGN_PERSON_AND_ORGANIZATION_ASSIGNMENT ( #115, #192, ( #129 ) ) ;
#176 = CALENDAR_DATE ( 2021, 8, 10 ) ;
#177 = MANIFOLD_SOLID_BREP ( 'Corps-Déplacer/Copier1[2]', #15 ) ;
#178 = CC_DESIGN_APPROVAL ( #135, ( #53 ) ) ;
#179 = ORIENTED_EDGE ( 'NONE', *, *, #57, .F. ) ;
#180 = EDGE_CURVE ( 'NONE', #210, #210, #36, .T. ) ;
#181 = ORIENTED_EDGE ( 'NONE', *, *, #80, .T. ) ;
#182 = ORIENTED_EDGE ( 'NONE', *, *, #112, .T. ) ;
#183 = EDGE_LOOP ( 'NONE', ( #216 ) ) ;
#184 = CARTESIAN_POINT ( 'NONE',  ( 3.278400224091305190E-14, 0.7499999999999963363, 9.389711431702997047 ) ) ;
#185 = DIRECTION ( 'NONE',  ( 3.491481338843133355E-15, -1.224646799147353207E-16, 1.000000000000000000 ) ) ;
#186 = DIRECTION ( 'NONE',  ( 4.275831445896958607E-31, 1.000000000000000000, 1.224646799147352961E-16 ) ) ;
#187 = DIRECTION ( 'NONE',  ( -3.668437989309024280E-31, -1.000000000000000000, -1.032573497605243334E-16 ) ) ;
#188 = DIRECTION ( 'NONE',  ( 3.491481338843133355E-15, -1.224646799147353207E-16, 1.000000000000000000 ) ) ;
#189 =( NAMED_UNIT ( * ) PLANE_ANGLE_UNIT ( ) SI_UNIT ( $, .RADIAN. ) );
#190 = PERSON_AND_ORGANIZATION ( #79, #69 ) ;
#191 = DATE_TIME_ROLE ( 'creation_date' ) ;
#192 = PERSON_AND_ORGANIZATION_ROLE ( 'design_owner' ) ;
#193 = SHAPE_DEFINITION_REPRESENTATION ( #195, #38 ) ;
#194 = DATE_AND_TIME ( #176, #117 ) ;
#195 = PRODUCT_DEFINITION_SHAPE ( 'NONE', 'NONE',  #3 ) ;
#196 = ORIENTED_EDGE ( 'NONE', *, *, #47, .F. ) ;
#197 = CC_DESIGN_APPROVAL ( #88, ( #40 ) ) ;
#198 = EDGE_LOOP ( 'NONE', ( #181 ) ) ;
#199 = DIRECTION ( 'NONE',  ( -4.275831445896958607E-31, -1.000000000000000000, -1.224646799147353207E-16 ) ) ;
#200 = CARTESIAN_POINT ( 'NONE',  ( 1.058299037697121189E-15, -3.712013335537213522E-17, 0.3031088913245567062 ) ) ;
#201 = FACE_OUTER_BOUND ( 'NONE', #198, .T. ) ;
#202 = PLANE ( 'NONE',  #167 ) ;
#203 = CARTESIAN_POINT ( 'NONE',  ( 0.0000000000000000000, 0.0000000000000000000, 0.0000000000000000000 ) ) ;
#204 = UNCERTAINTY_MEASURE_WITH_UNIT (LENGTH_MEASURE( 1.000000000000000082E-05 ), #151, 'distance_accuracy_value', 'NONE');
#205 = CIRCLE ( 'NONE', #119, 0.5250000000000004663 ) ;
#206 = DIRECTION ( 'NONE',  ( 3.668437989309024280E-31, 1.000000000000000000, 1.032573497605243334E-16 ) ) ;
#207 = PERSON_AND_ORGANIZATION_ROLE ( 'classification_officer' ) ;
#208 = ADVANCED_FACE ( 'NONE', ( #128 ), #202, .F. ) ;
#209 = AXIS2_PLACEMENT_3D ( 'NONE', #12, #74, #127 ) ;
#210 = VERTEX_POINT ( 'NONE', #155 ) ;
#211 = ADVANCED_FACE ( 'NONE', ( #92, #201 ), #124, .T. ) ;
#212 = DATE_AND_TIME ( #173, #31 ) ;
#213 = COORDINATED_UNIVERSAL_TIME_OFFSET ( 1, 0, .AHEAD. ) ;
#214 = CARTESIAN_POINT ( 'NONE',  ( 3.142333204958820020E-14, 3.936869429487364589E-33, 9.000000000000000000 ) ) ;
#215 = LOCAL_TIME ( 7, 53, 47.00000000000000000, #35 ) ;
#216 = ORIENTED_EDGE ( 'NONE', *, *, #67, .T. ) ;
#217 = ADVANCED_FACE ( 'NONE', ( #219, #95 ), #22, .T. ) ;
#218 = CARTESIAN_POINT ( 'NONE',  ( 1.047444401652940007E-13, -3.673940397442059178E-15, 30.00000000000000000 ) ) ;
#219 = FACE_OUTER_BOUND ( 'NONE', #42, .T. ) ;
#220 = AXIS2_PLACEMENT_3D ( 'NONE', #214, #157, #199 ) ;
#221 = PLANE ( 'NONE',  #137 ) ;
#222 = ADVANCED_FACE ( 'NONE', ( #110 ), #2, .T. ) ;
#223 = CARTESIAN_POINT ( 'NONE',  ( 3.278400224091305190E-14, -1.149908004975238590E-15, 9.389711431702997047 ) ) ;
ENDSEC;
END-ISO-10303-21;
