ISO-10303-21;
HEADER;
FILE_DESCRIPTION (( 'STEP AP203' ),
    '1' );
FILE_NAME ('93032.step',
    '2021-10-08T05:54:09',
    ( '' ),
    ( '' ),
    'SwSTEP 2.0',
    'SolidWorks 2019',
    '' );
FILE_SCHEMA (( 'CONFIG_CONTROL_DESIGN' ));
ENDSEC;

DATA;
#1 = CARTESIAN_POINT ( 'NONE',  ( 1.047444401652940007E-13, -3.673940397442059178E-15, 30.00000000000000000 ) ) ;
#2 = APPROVAL_PERSON_ORGANIZATION ( #62, #175, #101 ) ;
#3 = DIRECTION ( 'NONE',  ( -3.491481338843133355E-15, 1.224646799147353207E-16, -1.000000000000000000 ) ) ;
#4 = DIRECTION ( 'NONE',  ( 0.0000000000000000000, -1.000000000000000000, 0.0000000000000000000 ) ) ;
#5 = DIRECTION ( 'NONE',  ( 0.0000000000000000000, 1.000000000000000000, 0.0000000000000000000 ) ) ;
#6 = CC_DESIGN_APPROVAL ( #44, ( #68 ) ) ;
#7 = FACE_BOUND ( 'NONE', #155, .T. ) ;
#8 = VERTEX_POINT ( 'NONE', #219 ) ;
#9 = CONICAL_SURFACE ( 'NONE', #168, 0.6500000000000000222, 0.7853981633974510546 ) ;
#10 = DATE_AND_TIME ( #133, #40 ) ;
#11 = DATE_AND_TIME ( #118, #173 ) ;
#12 = SHAPE_DEFINITION_REPRESENTATION ( #138, #94 ) ;
#13 = EDGE_LOOP ( 'NONE', ( #161 ) ) ;
#14 = AXIS2_PLACEMENT_3D ( 'NONE', #56, #92, #5 ) ;
#15 = APPROVAL_ROLE ( '' ) ;
#16 = ORIENTED_EDGE ( 'NONE', *, *, #70, .F. ) ;
#17 = ADVANCED_FACE ( 'NONE', ( #21, #212 ), #9, .T. ) ;
#18 = DIRECTION ( 'NONE',  ( 0.0000000000000000000, 1.000000000000000000, 0.0000000000000000000 ) ) ;
#19 = CYLINDRICAL_SURFACE ( 'NONE', #177, 0.4749999999999990896 ) ;
#20 = DIRECTION ( 'NONE',  ( -4.275831445896958607E-31, -1.000000000000000000, -1.224646799147353207E-16 ) ) ;
#21 = FACE_OUTER_BOUND ( 'NONE', #71, .T. ) ;
#22 = ADVANCED_FACE ( 'NONE', ( #181 ), #214, .T. ) ;
#23 = CARTESIAN_POINT ( 'NONE',  ( 2.645255885073885842E-14, -9.278308655244911073E-16, 7.576313972081444525 ) ) ;
#24 = AXIS2_PLACEMENT_3D ( 'NONE', #152, #148, #220 ) ;
#25 = PERSON_AND_ORGANIZATION_ROLE ( 'design_supplier' ) ;
#26 = CARTESIAN_POINT ( 'NONE',  ( 9.575086531545369230E-16, 0.4749999999999987566, 0.2742413778650747980 ) ) ;
#27 = DATE_AND_TIME ( #81, #143 ) ;
#28 = AXIS2_PLACEMENT_3D ( 'NONE', #193, #37, #110 ) ;
#29 = APPROVAL_ROLE ( '' ) ;
#30 = COORDINATED_UNIVERSAL_TIME_OFFSET ( 1, 0, .AHEAD. ) ;
#31 = DATE_TIME_ROLE ( 'classification_date' ) ;
#32 = CIRCLE ( 'NONE', #14, 0.7499999999999973355 ) ;
#33 = EDGE_CURVE ( 'NONE', #202, #202, #32, .T. ) ;
#34 = EDGE_LOOP ( 'NONE', ( #16 ) ) ;
#35 = PRODUCT_DEFINITION ( 'UNKNOWN', '', #197, #162 ) ;
#36 = LOCAL_TIME ( 7, 54, 9.000000000000000000, #102 ) ;
#37 = DIRECTION ( 'NONE',  ( -3.491481338843133355E-15, 1.224646799147353207E-16, -1.000000000000000000 ) ) ;
#38 = DIRECTION ( 'NONE',  ( -3.491481338843133355E-15, 1.224646799147353207E-16, -1.000000000000000000 ) ) ;
#39 = AXIS2_PLACEMENT_3D ( 'NONE', #128, #3, #76 ) ;
#40 = LOCAL_TIME ( 7, 54, 9.000000000000000000, #137 ) ;
#41 = DIRECTION ( 'NONE',  ( 3.491481338843133355E-15, -1.224646799147353207E-16, 1.000000000000000000 ) ) ;
#42 = FACE_OUTER_BOUND ( 'NONE', #179, .T. ) ;
#43 = DIRECTION ( 'NONE',  ( 3.491481338843133355E-15, -1.224646799147353207E-16, 1.000000000000000000 ) ) ;
#44 = APPROVAL ( #158, 'UNSPECIFIED' ) ;
#45 = MANIFOLD_SOLID_BREP ( 'Corps-Déplacer/Copier1[1]', #119 ) ;
#46 = CARTESIAN_POINT ( 'NONE',  ( 1.047444401652940007E-13, 0.6499999999999962474, 30.00000000000000000 ) ) ;
#47 = APPROVAL_STATUS ( 'not_yet_approved' ) ;
#48 = ADVANCED_FACE ( 'NONE', ( #75 ), #145, .F. ) ;
#49 = APPROVAL_DATE_TIME ( #27, #156 ) ;
#50 = PERSON_AND_ORGANIZATION ( #74, #140 ) ;
#51 = PRODUCT ( '93032', '93032', '', ( #130 ) ) ;
#52 = ORIENTED_EDGE ( 'NONE', *, *, #191, .T. ) ;
#53 = EDGE_LOOP ( 'NONE', ( #141 ) ) ;
#54 = DIRECTION ( 'NONE',  ( -3.491481338843133355E-15, 1.224646799147353207E-16, -1.000000000000000000 ) ) ;
#55 = DIRECTION ( 'NONE',  ( -3.491481338843133355E-15, 1.224646799147353207E-16, -1.000000000000000000 ) ) ;
#56 = CARTESIAN_POINT ( 'NONE',  ( 2.645255885073885842E-14, -9.278308655244911073E-16, 7.576313972081444525 ) ) ;
#57 = DIRECTION ( 'NONE',  ( -3.491481338843133355E-15, 1.224646799147353207E-16, -1.000000000000000000 ) ) ;
#58 = DIRECTION ( 'NONE',  ( -4.054589356604717200E-31, -1.000000000000000000, -1.141265444721586469E-16 ) ) ;
#59 = APPLICATION_PROTOCOL_DEFINITION ( 'international standard', 'config_control_design', 1994, #151 ) ;
#60 = AXIS2_PLACEMENT_3D ( 'NONE', #195, #38, #89 ) ;
#61 = VERTEX_POINT ( 'NONE', #26 ) ;
#62 = PERSON_AND_ORGANIZATION ( #74, #140 ) ;
#63 = ADVANCED_FACE ( 'NONE', ( #164, #165 ), #19, .T. ) ;
#64 = AXIS2_PLACEMENT_3D ( 'NONE', #169, #41, #58 ) ;
#65 = PERSON_AND_ORGANIZATION ( #74, #140 ) ;
#66 = EDGE_CURVE ( 'NONE', #8, #8, #147, .T. ) ;
#67 = DATE_AND_TIME ( #178, #221 ) ;
#68 = SECURITY_CLASSIFICATION ( '', '', #186 ) ;
#69 = PERSON_AND_ORGANIZATION ( #74, #140 ) ;
#70 = EDGE_CURVE ( 'NONE', #99, #99, #73, .T. ) ;
#71 = EDGE_LOOP ( 'NONE', ( #157 ) ) ;
#72 = CYLINDRICAL_SURFACE ( 'NONE', #150, 0.7499999999999985567 ) ;
#73 = CIRCLE ( 'NONE', #39, 0.6500000000000000222 ) ;
#74 = PERSON ( 'UNSPECIFIED', 'UNSPECIFIED', 'UNSPECIFIED', ('UNSPECIFIED'), ('UNSPECIFIED'), ('UNSPECIFIED') ) ;
#75 = FACE_OUTER_BOUND ( 'NONE', #34, .T. ) ;
#76 = DIRECTION ( 'NONE',  ( 0.0000000000000000000, 1.000000000000000000, 0.0000000000000000000 ) ) ;
#77 =( GEOMETRIC_REPRESENTATION_CONTEXT ( 3 ) GLOBAL_UNCERTAINTY_ASSIGNED_CONTEXT ( ( #187 ) ) GLOBAL_UNIT_ASSIGNED_CONTEXT ( ( #172, #134, #80 ) ) REPRESENTATION_CONTEXT ( 'NONE', 'WORKASPACE' ) );
#78 = ADVANCED_FACE ( 'NONE', ( #213, #217 ), #72, .T. ) ;
#79 = CARTESIAN_POINT ( 'NONE',  ( 1.047444401652940007E-13, 4.874219293650981803E-33, 30.00000000000000000 ) ) ;
#80 =( NAMED_UNIT ( * ) SI_UNIT ( $, .STERADIAN. ) SOLID_ANGLE_UNIT ( ) );
#81 = CALENDAR_DATE ( 2021, 8, 10 ) ;
#82 = APPROVAL_DATE_TIME ( #11, #175 ) ;
#83 = AXIS2_PLACEMENT_3D ( 'NONE', #79, #111, #144 ) ;
#84 = CC_DESIGN_PERSON_AND_ORGANIZATION_ASSIGNMENT ( #50, #25, ( #197 ) ) ;
#85 = DATE_AND_TIME ( #86, #36 ) ;
#86 = CALENDAR_DATE ( 2021, 8, 10 ) ;
#87 = EDGE_LOOP ( 'NONE', ( #109 ) ) ;
#88 = ADVANCED_FACE ( 'NONE', ( #146 ), #216, .F. ) ;
#89 = DIRECTION ( 'NONE',  ( 0.0000000000000000000, 1.000000000000000000, 0.0000000000000000000 ) ) ;
#90 = CC_DESIGN_DATE_AND_TIME_ASSIGNMENT ( #67, #31, ( #68 ) ) ;
#91 = DIRECTION ( 'NONE',  ( -4.275831445896958607E-31, -1.000000000000000000, -1.224646799147353207E-16 ) ) ;
#92 = DIRECTION ( 'NONE',  ( -3.491481338843133355E-15, 1.224646799147353207E-16, -1.000000000000000000 ) ) ;
#93 = DIRECTION ( 'NONE',  ( 0.0000000000000000000, 1.000000000000000000, 0.0000000000000000000 ) ) ;
#94 = ADVANCED_BREP_SHAPE_REPRESENTATION ( '93032', ( #45, #192, #24 ), #77 ) ;
#95 = FACE_OUTER_BOUND ( 'NONE', #159, .T. ) ;
#96 = AXIS2_PLACEMENT_3D ( 'NONE', #127, #199, #18 ) ;
#97 = CARTESIAN_POINT ( 'NONE',  ( 2.645255885073885842E-14, 0.7499999999999963363, 7.576313972081444525 ) ) ;
#98 = APPLICATION_PROTOCOL_DEFINITION ( 'international standard', 'config_control_design', 1994, #209 ) ;
#99 = VERTEX_POINT ( 'NONE', #46 ) ;
#100 = APPROVAL_PERSON_ORGANIZATION ( #69, #44, #15 ) ;
#101 = APPROVAL_ROLE ( '' ) ;
#102 = COORDINATED_UNIVERSAL_TIME_OFFSET ( 1, 0, .AHEAD. ) ;
#103 = CONICAL_SURFACE ( 'NONE', #64, 0.4749999999999988121, 1.047197551196592746 ) ;
#104 = ORIENTED_EDGE ( 'NONE', *, *, #191, .F. ) ;
#105 = COORDINATED_UNIVERSAL_TIME_OFFSET ( 1, 0, .AHEAD. ) ;
#106 = ORIENTED_EDGE ( 'NONE', *, *, #33, .T. ) ;
#107 = AXIS2_PLACEMENT_3D ( 'NONE', #126, #43, #20 ) ;
#108 = ORIENTED_EDGE ( 'NONE', *, *, #33, .F. ) ;
#109 = ORIENTED_EDGE ( 'NONE', *, *, #70, .T. ) ;
#110 = DIRECTION ( 'NONE',  ( 4.054589356604717200E-31, 1.000000000000000000, 1.141265444721586469E-16 ) ) ;
#111 = DIRECTION ( 'NONE',  ( -3.491481338843133355E-15, 1.224646799147353207E-16, -1.000000000000000000 ) ) ;
#112 = CC_DESIGN_APPROVAL ( #175, ( #197 ) ) ;
#113 = CARTESIAN_POINT ( 'NONE',  ( 0.0000000000000000000, 0.0000000000000000000, 0.0000000000000000000 ) ) ;
#114 = CARTESIAN_POINT ( 'NONE',  ( 0.0000000000000000000, 0.0000000000000000000, 0.0000000000000000000 ) ) ;
#115 = CC_DESIGN_PERSON_AND_ORGANIZATION_ASSIGNMENT ( #189, #207, ( #197 ) ) ;
#116 = DIRECTION ( 'NONE',  ( 0.0000000000000000000, 1.000000000000000000, 0.0000000000000000000 ) ) ;
#117 = PERSON_AND_ORGANIZATION_ROLE ( 'design_owner' ) ;
#118 = CALENDAR_DATE ( 2021, 8, 10 ) ;
#119 = CLOSED_SHELL ( 'NONE', ( #88, #166, #78, #17, #48 ) ) ;
#120 = EDGE_CURVE ( 'NONE', #205, #205, #139, .T. ) ;
#121 = CIRCLE ( 'NONE', #28, 0.4749999999999988121 ) ;
#122 = EDGE_LOOP ( 'NONE', ( #180 ) ) ;
#123 = CLOSED_SHELL ( 'NONE', ( #185, #63, #22 ) ) ;
#124 = ORIENTED_EDGE ( 'NONE', *, *, #208, .T. ) ;
#125 = DIRECTION ( 'NONE',  ( -3.491481338843133355E-15, 1.224646799147353207E-16, -1.000000000000000000 ) ) ;
#126 = CARTESIAN_POINT ( 'NONE',  ( 2.478951750578624367E-14, 3.561929483821893344E-33, 7.099999999999999645 ) ) ;
#127 = CARTESIAN_POINT ( 'NONE',  ( 1.043952920314096810E-13, -3.661693929450586610E-15, 29.89999999999999858 ) ) ;
#128 = CARTESIAN_POINT ( 'NONE',  ( 1.047444401652940007E-13, -3.673940397442059178E-15, 30.00000000000000000 ) ) ;
#129 = DIRECTION ( 'NONE',  ( 4.275831445896958607E-31, 1.000000000000000000, 1.224646799147353454E-16 ) ) ;
#130 = MECHANICAL_CONTEXT ( 'NONE', #151, 'mechanical' ) ;
#131 = AXIS2_PLACEMENT_3D ( 'NONE', #184, #167, #91 ) ;
#132 = CC_DESIGN_DATE_AND_TIME_ASSIGNMENT ( #10, #203, ( #35 ) ) ;
#133 = CALENDAR_DATE ( 2021, 8, 10 ) ;
#134 =( NAMED_UNIT ( * ) PLANE_ANGLE_UNIT ( ) SI_UNIT ( $, .RADIAN. ) );
#135 = CARTESIAN_POINT ( 'NONE',  ( 2.478951750578624367E-14, 0.4749999999999984235, 7.099999999999999645 ) ) ;
#136 = APPROVAL_PERSON_ORGANIZATION ( #171, #156, #29 ) ;
#137 = COORDINATED_UNIVERSAL_TIME_OFFSET ( 1, 0, .AHEAD. ) ;
#138 = PRODUCT_DEFINITION_SHAPE ( 'NONE', 'NONE',  #35 ) ;
#139 = CIRCLE ( 'NONE', #96, 0.7499999999999998890 ) ;
#140 = ORGANIZATION ( 'UNSPECIFIED', 'UNSPECIFIED', '' ) ;
#141 = ORIENTED_EDGE ( 'NONE', *, *, #120, .T. ) ;
#142 = EDGE_LOOP ( 'NONE', ( #183 ) ) ;
#143 = LOCAL_TIME ( 7, 54, 9.000000000000000000, #30 ) ;
#144 = DIRECTION ( 'NONE',  ( 4.275831445896958607E-31, 1.000000000000000000, 1.224646799147353207E-16 ) ) ;
#145 = PLANE ( 'NONE',  #83 ) ;
#146 = FACE_OUTER_BOUND ( 'NONE', #223, .T. ) ;
#147 = CIRCLE ( 'NONE', #163, 0.4749999999999993117 ) ;
#148 = DIRECTION ( 'NONE',  ( 0.0000000000000000000, 0.0000000000000000000, 1.000000000000000000 ) ) ;
#149 = PERSON_AND_ORGANIZATION ( #74, #140 ) ;
#150 = AXIS2_PLACEMENT_3D ( 'NONE', #114, #55, #200 ) ;
#151 = APPLICATION_CONTEXT ( 'configuration controlled 3d designs of mechanical parts and assemblies' ) ;
#152 = CARTESIAN_POINT ( 'NONE',  ( 0.0000000000000000000, 0.0000000000000000000, 0.0000000000000000000 ) ) ;
#153 = CC_DESIGN_PERSON_AND_ORGANIZATION_ASSIGNMENT ( #174, #117, ( #51 ) ) ;
#154 = VERTEX_POINT ( 'NONE', #135 ) ;
#155 = EDGE_LOOP ( 'NONE', ( #104 ) ) ;
#156 = APPROVAL ( #190, 'UNSPECIFIED' ) ;
#157 = ORIENTED_EDGE ( 'NONE', *, *, #120, .F. ) ;
#158 = APPROVAL_STATUS ( 'not_yet_approved' ) ;
#159 = EDGE_LOOP ( 'NONE', ( #124 ) ) ;
#160 = PERSON_AND_ORGANIZATION_ROLE ( 'classification_officer' ) ;
#161 = ORIENTED_EDGE ( 'NONE', *, *, #66, .T. ) ;
#162 = DESIGN_CONTEXT ( 'detailed design', #209, 'design' ) ;
#163 = AXIS2_PLACEMENT_3D ( 'NONE', #182, #125, #93 ) ;
#164 = FACE_OUTER_BOUND ( 'NONE', #122, .T. ) ;
#165 = FACE_OUTER_BOUND ( 'NONE', #13, .T. ) ;
#166 = ADVANCED_FACE ( 'NONE', ( #7, #42 ), #201, .T. ) ;
#167 = DIRECTION ( 'NONE',  ( 3.491481338843133355E-15, -1.224646799147353207E-16, 1.000000000000000000 ) ) ;
#168 = AXIS2_PLACEMENT_3D ( 'NONE', #1, #54, #116 ) ;
#169 = CARTESIAN_POINT ( 'NONE',  ( 9.575086531545367258E-16, -3.358488255962235758E-17, 0.2742413778650747425 ) ) ;
#170 = CC_DESIGN_PERSON_AND_ORGANIZATION_ASSIGNMENT ( #65, #160, ( #68 ) ) ;
#171 = PERSON_AND_ORGANIZATION ( #74, #140 ) ;
#172 =( LENGTH_UNIT ( ) NAMED_UNIT ( * ) SI_UNIT ( .MILLI., .METRE. ) );
#173 = LOCAL_TIME ( 7, 54, 9.000000000000000000, #176 ) ;
#174 = PERSON_AND_ORGANIZATION ( #74, #140 ) ;
#175 = APPROVAL ( #47, 'UNSPECIFIED' ) ;
#176 = COORDINATED_UNIVERSAL_TIME_OFFSET ( 1, 0, .AHEAD. ) ;
#177 = AXIS2_PLACEMENT_3D ( 'NONE', #113, #57, #129 ) ;
#178 = CALENDAR_DATE ( 2021, 8, 10 ) ;
#179 = EDGE_LOOP ( 'NONE', ( #106 ) ) ;
#180 = ORIENTED_EDGE ( 'NONE', *, *, #208, .F. ) ;
#181 = FACE_OUTER_BOUND ( 'NONE', #142, .T. ) ;
#182 = CARTESIAN_POINT ( 'NONE',  ( 2.478951750578624367E-14, -8.694992273946207746E-16, 7.099999999999999645 ) ) ;
#183 = ORIENTED_EDGE ( 'NONE', *, *, #66, .F. ) ;
#184 = CARTESIAN_POINT ( 'NONE',  ( 2.478951750578624367E-14, 3.561929483821893344E-33, 7.099999999999999645 ) ) ;
#185 = ADVANCED_FACE ( 'NONE', ( #95 ), #103, .T. ) ;
#186 = SECURITY_CLASSIFICATION_LEVEL ( 'unclassified' ) ;
#187 = UNCERTAINTY_MEASURE_WITH_UNIT (LENGTH_MEASURE( 1.000000000000000082E-05 ), #172, 'distance_accuracy_value', 'NONE');
#188 = CARTESIAN_POINT ( 'NONE',  ( 1.043952920314096810E-13, 0.7499999999999962252, 29.89999999999999858 ) ) ;
#189 = PERSON_AND_ORGANIZATION ( #74, #140 ) ;
#190 = APPROVAL_STATUS ( 'not_yet_approved' ) ;
#191 = EDGE_CURVE ( 'NONE', #154, #154, #196, .T. ) ;
#192 = MANIFOLD_SOLID_BREP ( 'Corps-Déplacer/Copier1[2]', #123 ) ;
#193 = CARTESIAN_POINT ( 'NONE',  ( 9.575086531545367258E-16, -3.358488255962235758E-17, 0.2742413778650747425 ) ) ;
#194 = PRODUCT_RELATED_PRODUCT_CATEGORY ( 'detail', '', ( #51 ) ) ;
#195 = CARTESIAN_POINT ( 'NONE',  ( 2.478951750578624367E-14, -8.694992273946207746E-16, 7.099999999999999645 ) ) ;
#196 = CIRCLE ( 'NONE', #60, 0.4749999999999993117 ) ;
#197 = PRODUCT_DEFINITION_FORMATION_WITH_SPECIFIED_SOURCE ( 'ANY', '', #51, .NOT_KNOWN. ) ;
#198 = DIRECTION ( 'NONE',  ( 3.491481338843133355E-15, -1.224646799147353207E-16, 1.000000000000000000 ) ) ;
#199 = DIRECTION ( 'NONE',  ( -3.491481338843133355E-15, 1.224646799147353207E-16, -1.000000000000000000 ) ) ;
#200 = DIRECTION ( 'NONE',  ( 4.275831445896959482E-31, 1.000000000000000000, 1.224646799147353454E-16 ) ) ;
#201 = CONICAL_SURFACE ( 'NONE', #215, 0.7499999999999973355, 0.5235987755982925984 ) ;
#202 = VERTEX_POINT ( 'NONE', #97 ) ;
#203 = DATE_TIME_ROLE ( 'creation_date' ) ;
#204 = PERSON_AND_ORGANIZATION_ROLE ( 'creator' ) ;
#205 = VERTEX_POINT ( 'NONE', #188 ) ;
#206 = CC_DESIGN_SECURITY_CLASSIFICATION ( #68, ( #197 ) ) ;
#207 = PERSON_AND_ORGANIZATION_ROLE ( 'creator' ) ;
#208 = EDGE_CURVE ( 'NONE', #61, #61, #121, .T. ) ;
#209 = APPLICATION_CONTEXT ( 'configuration controlled 3d designs of mechanical parts and assemblies' ) ;
#210 = EDGE_LOOP ( 'NONE', ( #108 ) ) ;
#211 = CC_DESIGN_PERSON_AND_ORGANIZATION_ASSIGNMENT ( #149, #204, ( #35 ) ) ;
#212 = FACE_BOUND ( 'NONE', #87, .T. ) ;
#213 = FACE_OUTER_BOUND ( 'NONE', #210, .T. ) ;
#214 = PLANE ( 'NONE',  #131 ) ;
#215 = AXIS2_PLACEMENT_3D ( 'NONE', #23, #198, #4 ) ;
#216 = PLANE ( 'NONE',  #107 ) ;
#217 = FACE_OUTER_BOUND ( 'NONE', #53, .T. ) ;
#218 = CC_DESIGN_APPROVAL ( #156, ( #35 ) ) ;
#219 = CARTESIAN_POINT ( 'NONE',  ( 2.478951750578624367E-14, 0.4749999999999984235, 7.099999999999999645 ) ) ;
#220 = DIRECTION ( 'NONE',  ( 1.000000000000000000, 0.0000000000000000000, 0.0000000000000000000 ) ) ;
#221 = LOCAL_TIME ( 7, 54, 9.000000000000000000, #105 ) ;
#222 = APPROVAL_DATE_TIME ( #85, #44 ) ;
#223 = EDGE_LOOP ( 'NONE', ( #52 ) ) ;
ENDSEC;
END-ISO-10303-21;
