ISO-10303-21;
HEADER;
FILE_DESCRIPTION (( 'STEP AP203' ),
    '1' );
FILE_NAME ('39031.step',
    '2021-10-08T05:53:46',
    ( '' ),
    ( '' ),
    'SwSTEP 2.0',
    'SolidWorks 2019',
    '' );
FILE_SCHEMA (( 'CONFIG_CONTROL_DESIGN' ));
ENDSEC;

DATA;
#1 = CARTESIAN_POINT ( 'NONE',  ( 1.047444401652940007E-13, -3.673940397442059178E-15, 30.00000000000000000 ) ) ;
#2 = ADVANCED_FACE ( 'NONE', ( #35 ), #49, .F. ) ;
#3 = DIRECTION ( 'NONE',  ( 3.491481338843133355E-15, -1.224646799147353207E-16, 1.000000000000000000 ) ) ;
#4 = CARTESIAN_POINT ( 'NONE',  ( 7.559278840693715456E-16, -2.651438096812293172E-17, 0.2165063509461117586 ) ) ;
#5 = CLOSED_SHELL ( 'NONE', ( #220, #145, #30 ) ) ;
#6 = CARTESIAN_POINT ( 'NONE',  ( 1.047444401652940007E-13, -3.673940397442059178E-15, 30.00000000000000000 ) ) ;
#7 = CARTESIAN_POINT ( 'NONE',  ( 1.955229549752154995E-14, -6.858022075225178552E-16, 5.600000000000000533 ) ) ;
#8 = AXIS2_PLACEMENT_3D ( 'NONE', #1, #155, #67 ) ;
#9 = PERSON_AND_ORGANIZATION_ROLE ( 'creator' ) ;
#10 = DATE_AND_TIME ( #198, #73 ) ;
#11 = PERSON_AND_ORGANIZATION_ROLE ( 'creator' ) ;
#12 = CIRCLE ( 'NONE', #29, 0.3999999999999988565 ) ;
#13 = SECURITY_CLASSIFICATION_LEVEL ( 'unclassified' ) ;
#14 = DATE_AND_TIME ( #45, #60 ) ;
#15 = ORIENTED_EDGE ( 'NONE', *, *, #43, .T. ) ;
#16 = LOCAL_TIME ( 7, 53, 46.00000000000000000, #152 ) ;
#17 = DIRECTION ( 'NONE',  ( -3.491481338843133355E-15, 1.224646799147353207E-16, -1.000000000000000000 ) ) ;
#18 = ORIENTED_EDGE ( 'NONE', *, *, #200, .F. ) ;
#19 = APPLICATION_CONTEXT ( 'configuration controlled 3d designs of mechanical parts and assemblies' ) ;
#20 = EDGE_LOOP ( 'NONE', ( #187 ) ) ;
#21 = EDGE_LOOP ( 'NONE', ( #185 ) ) ;
#22 = PERSON_AND_ORGANIZATION ( #44, #56 ) ;
#23 = CARTESIAN_POINT ( 'NONE',  ( 2.118109371630169990E-14, 0.4999999999999963363, 6.066506350946110793 ) ) ;
#24 = DIRECTION ( 'NONE',  ( -3.491481338843133355E-15, 1.224646799147353207E-16, -1.000000000000000000 ) ) ;
#25 = MANIFOLD_SOLID_BREP ( 'Corps-Déplacer/Copier1[2]', #5 ) ;
#26 = DATE_AND_TIME ( #199, #141 ) ;
#27 = APPROVAL_STATUS ( 'not_yet_approved' ) ;
#28 = PERSON_AND_ORGANIZATION ( #44, #56 ) ;
#29 = AXIS2_PLACEMENT_3D ( 'NONE', #6, #75, #52 ) ;
#30 = ADVANCED_FACE ( 'NONE', ( #88 ), #221, .T. ) ;
#31 = DIRECTION ( 'NONE',  ( 0.0000000000000000000, -1.000000000000000000, 0.0000000000000000000 ) ) ;
#32 =( GEOMETRIC_REPRESENTATION_CONTEXT ( 3 ) GLOBAL_UNCERTAINTY_ASSIGNED_CONTEXT ( ( #158 ) ) GLOBAL_UNIT_ASSIGNED_CONTEXT ( ( #112, #39, #209 ) ) REPRESENTATION_CONTEXT ( 'NONE', 'WORKASPACE' ) );
#33 = APPROVAL_PERSON_ORGANIZATION ( #58, #55, #180 ) ;
#34 = ORIENTED_EDGE ( 'NONE', *, *, #207, .F. ) ;
#35 = FACE_OUTER_BOUND ( 'NONE', #189, .T. ) ;
#36 = EDGE_LOOP ( 'NONE', ( #65 ) ) ;
#37 = ORIENTED_EDGE ( 'NONE', *, *, #207, .T. ) ;
#38 = APPROVAL_ROLE ( '' ) ;
#39 =( NAMED_UNIT ( * ) PLANE_ANGLE_UNIT ( ) SI_UNIT ( $, .RADIAN. ) );
#40 = CARTESIAN_POINT ( 'NONE',  ( 1.043952920314096936E-13, 0.4999999999999952260, 29.90000000000000213 ) ) ;
#41 = VERTEX_POINT ( 'NONE', #210 ) ;
#42 = PRODUCT_DEFINITION_FORMATION_WITH_SPECIFIED_SOURCE ( 'ANY', '', #215, .NOT_KNOWN. ) ;
#43 = EDGE_CURVE ( 'NONE', #146, #146, #205, .T. ) ;
#44 = PERSON ( 'UNSPECIFIED', 'UNSPECIFIED', 'UNSPECIFIED', ('UNSPECIFIED'), ('UNSPECIFIED'), ('UNSPECIFIED') ) ;
#45 = CALENDAR_DATE ( 2021, 8, 10 ) ;
#46 = CARTESIAN_POINT ( 'NONE',  ( 1.955229549752154995E-14, -6.858022075225178552E-16, 5.600000000000000533 ) ) ;
#47 = EDGE_LOOP ( 'NONE', ( #48 ) ) ;
#48 = ORIENTED_EDGE ( 'NONE', *, *, #132, .F. ) ;
#49 = PLANE ( 'NONE',  #93 ) ;
#50 = CARTESIAN_POINT ( 'NONE',  ( 1.955229549752154995E-14, -1.034091280205473993E-31, 5.600000000000000533 ) ) ;
#51 = PRODUCT_RELATED_PRODUCT_CATEGORY ( 'detail', '', ( #215 ) ) ;
#52 = DIRECTION ( 'NONE',  ( 0.0000000000000000000, 1.000000000000000000, 0.0000000000000000000 ) ) ;
#53 = CONICAL_SURFACE ( 'NONE', #8, 0.3999999999999988565, 0.7853981633974689291 ) ;
#54 = DIRECTION ( 'NONE',  ( -4.275831445896958607E-31, -1.000000000000000000, -1.224646799147353207E-16 ) ) ;
#55 = APPROVAL ( #79, 'UNSPECIFIED' ) ;
#56 = ORGANIZATION ( 'UNSPECIFIED', 'UNSPECIFIED', '' ) ;
#57 = VERTEX_POINT ( 'NONE', #40 ) ;
#58 = PERSON_AND_ORGANIZATION ( #44, #56 ) ;
#59 = DATE_AND_TIME ( #117, #16 ) ;
#60 = LOCAL_TIME ( 7, 53, 46.00000000000000000, #98 ) ;
#61 = PERSON_AND_ORGANIZATION ( #44, #56 ) ;
#62 = COORDINATED_UNIVERSAL_TIME_OFFSET ( 1, 0, .AHEAD. ) ;
#63 = CALENDAR_DATE ( 2021, 8, 10 ) ;
#64 = DIRECTION ( 'NONE',  ( 5.135813185032637408E-31, 1.000000000000000000, 1.445602896647341628E-16 ) ) ;
#65 = ORIENTED_EDGE ( 'NONE', *, *, #200, .T. ) ;
#66 = CC_DESIGN_PERSON_AND_ORGANIZATION_ASSIGNMENT ( #165, #11, ( #42 ) ) ;
#67 = DIRECTION ( 'NONE',  ( 0.0000000000000000000, 1.000000000000000000, 0.0000000000000000000 ) ) ;
#68 = FACE_OUTER_BOUND ( 'NONE', #121, .T. ) ;
#69 = APPROVAL ( #27, 'UNSPECIFIED' ) ;
#70 = PLANE ( 'NONE',  #183 ) ;
#71 = PERSON_AND_ORGANIZATION ( #44, #56 ) ;
#72 = FACE_OUTER_BOUND ( 'NONE', #190, .T. ) ;
#73 = LOCAL_TIME ( 7, 53, 46.00000000000000000, #62 ) ;
#74 = CONICAL_SURFACE ( 'NONE', #80, 0.4999999999999970579, 0.2617993877991430240 ) ;
#75 = DIRECTION ( 'NONE',  ( -3.491481338843133355E-15, 1.224646799147353207E-16, -1.000000000000000000 ) ) ;
#76 = APPLICATION_PROTOCOL_DEFINITION ( 'international standard', 'config_control_design', 1994, #116 ) ;
#77 = CIRCLE ( 'NONE', #154, 0.4999999999999989453 ) ;
#78 = ADVANCED_FACE ( 'NONE', ( #166, #83 ), #74, .T. ) ;
#79 = APPROVAL_STATUS ( 'not_yet_approved' ) ;
#80 = AXIS2_PLACEMENT_3D ( 'NONE', #124, #3, #31 ) ;
#81 = AXIS2_PLACEMENT_3D ( 'NONE', #50, #138, #106 ) ;
#82 = PERSON_AND_ORGANIZATION ( #44, #56 ) ;
#83 = FACE_OUTER_BOUND ( 'NONE', #140, .T. ) ;
#84 = FACE_BOUND ( 'NONE', #36, .T. ) ;
#85 = CARTESIAN_POINT ( 'NONE',  ( 0.0000000000000000000, 0.0000000000000000000, 0.0000000000000000000 ) ) ;
#86 = DIRECTION ( 'NONE',  ( 0.0000000000000000000, 1.000000000000000000, 0.0000000000000000000 ) ) ;
#87 = APPROVAL_PERSON_ORGANIZATION ( #28, #69, #182 ) ;
#88 = FACE_OUTER_BOUND ( 'NONE', #47, .T. ) ;
#89 = CC_DESIGN_DATE_AND_TIME_ASSIGNMENT ( #26, #136, ( #105 ) ) ;
#90 = CARTESIAN_POINT ( 'NONE',  ( 0.0000000000000000000, 0.0000000000000000000, 0.0000000000000000000 ) ) ;
#91 = CARTESIAN_POINT ( 'NONE',  ( 1.955229549752154995E-14, 0.3749999999999994449, 5.600000000000000533 ) ) ;
#92 = CARTESIAN_POINT ( 'NONE',  ( 1.047444401652940007E-13, 0.3999999999999951927, 30.00000000000000000 ) ) ;
#93 = AXIS2_PLACEMENT_3D ( 'NONE', #111, #153, #208 ) ;
#94 = FACE_OUTER_BOUND ( 'NONE', #204, .T. ) ;
#95 = DIRECTION ( 'NONE',  ( 1.000000000000000000, 0.0000000000000000000, 0.0000000000000000000 ) ) ;
#96 = EDGE_CURVE ( 'NONE', #128, #128, #168, .T. ) ;
#97 = PRODUCT_DEFINITION_SHAPE ( 'NONE', 'NONE',  #103 ) ;
#98 = COORDINATED_UNIVERSAL_TIME_OFFSET ( 1, 0, .AHEAD. ) ;
#99 = SHAPE_DEFINITION_REPRESENTATION ( #97, #139 ) ;
#100 = CC_DESIGN_PERSON_AND_ORGANIZATION_ASSIGNMENT ( #61, #134, ( #42 ) ) ;
#101 = AXIS2_PLACEMENT_3D ( 'NONE', #4, #144, #196 ) ;
#102 = APPROVAL_DATE_TIME ( #10, #69 ) ;
#103 = PRODUCT_DEFINITION ( 'UNKNOWN', '', #42, #162 ) ;
#104 = FACE_OUTER_BOUND ( 'NONE', #202, .T. ) ;
#105 = SECURITY_CLASSIFICATION ( '', '', #13 ) ;
#106 = DIRECTION ( 'NONE',  ( -4.275831445896958607E-31, -1.000000000000000000, -1.224646799147353207E-16 ) ) ;
#107 = CYLINDRICAL_SURFACE ( 'NONE', #130, 0.4999999999999980571 ) ;
#108 = EDGE_LOOP ( 'NONE', ( #34 ) ) ;
#109 = APPROVAL ( #192, 'UNSPECIFIED' ) ;
#110 = AXIS2_PLACEMENT_3D ( 'NONE', #212, #163, #177 ) ;
#111 = CARTESIAN_POINT ( 'NONE',  ( 1.047444401652940007E-13, 2.999519565323651582E-33, 30.00000000000000000 ) ) ;
#112 =( LENGTH_UNIT ( ) NAMED_UNIT ( * ) SI_UNIT ( .MILLI., .METRE. ) );
#113 = MECHANICAL_CONTEXT ( 'NONE', #116, 'mechanical' ) ;
#114 = APPROVAL_DATE_TIME ( #59, #109 ) ;
#115 = AXIS2_PLACEMENT_3D ( 'NONE', #186, #157, #64 ) ;
#116 = APPLICATION_CONTEXT ( 'configuration controlled 3d designs of mechanical parts and assemblies' ) ;
#117 = CALENDAR_DATE ( 2021, 8, 10 ) ;
#118 = PERSON_AND_ORGANIZATION_ROLE ( 'classification_officer' ) ;
#119 = ADVANCED_FACE ( 'NONE', ( #223, #203 ), #107, .T. ) ;
#120 = CC_DESIGN_APPROVAL ( #69, ( #42 ) ) ;
#121 = EDGE_LOOP ( 'NONE', ( #37 ) ) ;
#122 = ORIENTED_EDGE ( 'NONE', *, *, #96, .T. ) ;
#123 = CARTESIAN_POINT ( 'NONE',  ( 2.118109371630169990E-14, -7.429327584693243952E-16, 6.066506350946110793 ) ) ;
#124 = CARTESIAN_POINT ( 'NONE',  ( 2.118109371630169990E-14, -7.429327584693243952E-16, 6.066506350946110793 ) ) ;
#125 = CARTESIAN_POINT ( 'NONE',  ( 1.955229549752154995E-14, -1.034091280205473993E-31, 5.600000000000000533 ) ) ;
#126 = DIRECTION ( 'NONE',  ( 3.491481338843133355E-15, -1.224646799147353207E-16, 1.000000000000000000 ) ) ;
#127 = AXIS2_PLACEMENT_3D ( 'NONE', #46, #171, #86 ) ;
#128 = VERTEX_POINT ( 'NONE', #23 ) ;
#129 = CARTESIAN_POINT ( 'NONE',  ( 7.559278840693717428E-16, 0.3749999999999993894, 0.2165063509461118141 ) ) ;
#130 = AXIS2_PLACEMENT_3D ( 'NONE', #85, #169, #156 ) ;
#131 = DIRECTION ( 'NONE',  ( 0.0000000000000000000, 1.000000000000000000, 0.0000000000000000000 ) ) ;
#132 = EDGE_CURVE ( 'NONE', #194, #194, #197, .T. ) ;
#133 = CC_DESIGN_SECURITY_CLASSIFICATION ( #105, ( #42 ) ) ;
#134 = PERSON_AND_ORGANIZATION_ROLE ( 'design_supplier' ) ;
#135 = PERSON_AND_ORGANIZATION ( #44, #56 ) ;
#136 = DATE_TIME_ROLE ( 'classification_date' ) ;
#137 = ADVANCED_FACE ( 'NONE', ( #104, #84 ), #53, .T. ) ;
#138 = DIRECTION ( 'NONE',  ( 3.491481338843133355E-15, -1.224646799147353207E-16, 1.000000000000000000 ) ) ;
#139 = ADVANCED_BREP_SHAPE_REPRESENTATION ( '39031', ( #170, #25, #213 ), #32 ) ;
#140 = EDGE_LOOP ( 'NONE', ( #122 ) ) ;
#141 = LOCAL_TIME ( 7, 53, 46.00000000000000000, #201 ) ;
#142 = ADVANCED_FACE ( 'NONE', ( #68 ), #70, .F. ) ;
#143 = EDGE_LOOP ( 'NONE', ( #222 ) ) ;
#144 = DIRECTION ( 'NONE',  ( 3.491481338843133355E-15, -1.224646799147353207E-16, 1.000000000000000000 ) ) ;
#145 = ADVANCED_FACE ( 'NONE', ( #175, #94 ), #211, .T. ) ;
#146 = VERTEX_POINT ( 'NONE', #129 ) ;
#147 = DIRECTION ( 'NONE',  ( -3.491481338843133355E-15, 1.224646799147353207E-16, -1.000000000000000000 ) ) ;
#148 = DIRECTION ( 'NONE',  ( 0.0000000000000000000, 0.0000000000000000000, 1.000000000000000000 ) ) ;
#149 = CC_DESIGN_PERSON_AND_ORGANIZATION_ASSIGNMENT ( #71, #151, ( #215 ) ) ;
#150 = LOCAL_TIME ( 7, 53, 46.00000000000000000, #218 ) ;
#151 = PERSON_AND_ORGANIZATION_ROLE ( 'design_owner' ) ;
#152 = COORDINATED_UNIVERSAL_TIME_OFFSET ( 1, 0, .AHEAD. ) ;
#153 = DIRECTION ( 'NONE',  ( -3.491481338843133355E-15, 1.224646799147353207E-16, -1.000000000000000000 ) ) ;
#154 = AXIS2_PLACEMENT_3D ( 'NONE', #159, #24, #176 ) ;
#155 = DIRECTION ( 'NONE',  ( -3.491481338843133355E-15, 1.224646799147353207E-16, -1.000000000000000000 ) ) ;
#156 = DIRECTION ( 'NONE',  ( 4.275831445896958607E-31, 1.000000000000000000, 1.224646799147353207E-16 ) ) ;
#157 = DIRECTION ( 'NONE',  ( -3.491481338843133355E-15, 1.224646799147353207E-16, -1.000000000000000000 ) ) ;
#158 = UNCERTAINTY_MEASURE_WITH_UNIT (LENGTH_MEASURE( 1.000000000000000082E-05 ), #112, 'distance_accuracy_value', 'NONE');
#159 = CARTESIAN_POINT ( 'NONE',  ( 1.043952920314096936E-13, -3.661693929450586610E-15, 29.90000000000000213 ) ) ;
#160 = VERTEX_POINT ( 'NONE', #92 ) ;
#161 = CLOSED_SHELL ( 'NONE', ( #142, #78, #119, #137, #2 ) ) ;
#162 = DESIGN_CONTEXT ( 'detailed design', #19, 'design' ) ;
#163 = DIRECTION ( 'NONE',  ( -3.491481338843133355E-15, 1.224646799147353207E-16, -1.000000000000000000 ) ) ;
#164 = DATE_TIME_ROLE ( 'creation_date' ) ;
#165 = PERSON_AND_ORGANIZATION ( #44, #56 ) ;
#166 = FACE_BOUND ( 'NONE', #108, .T. ) ;
#167 = AXIS2_PLACEMENT_3D ( 'NONE', #7, #147, #131 ) ;
#168 = CIRCLE ( 'NONE', #173, 0.4999999999999970579 ) ;
#169 = DIRECTION ( 'NONE',  ( -3.491481338843133355E-15, 1.224646799147353207E-16, -1.000000000000000000 ) ) ;
#170 = MANIFOLD_SOLID_BREP ( 'Corps-Déplacer/Copier1[1]', #161 ) ;
#171 = DIRECTION ( 'NONE',  ( -3.491481338843133355E-15, 1.224646799147353207E-16, -1.000000000000000000 ) ) ;
#172 = ORIENTED_EDGE ( 'NONE', *, *, #132, .T. ) ;
#173 = AXIS2_PLACEMENT_3D ( 'NONE', #123, #17, #188 ) ;
#174 = CC_DESIGN_PERSON_AND_ORGANIZATION_ASSIGNMENT ( #82, #9, ( #103 ) ) ;
#175 = FACE_OUTER_BOUND ( 'NONE', #20, .T. ) ;
#176 = DIRECTION ( 'NONE',  ( 0.0000000000000000000, 1.000000000000000000, 0.0000000000000000000 ) ) ;
#177 = DIRECTION ( 'NONE',  ( 4.275831445896958607E-31, 1.000000000000000000, 1.224646799147353454E-16 ) ) ;
#178 = CC_DESIGN_DATE_AND_TIME_ASSIGNMENT ( #217, #164, ( #103 ) ) ;
#179 = APPROVAL_PERSON_ORGANIZATION ( #22, #109, #38 ) ;
#180 = APPROVAL_ROLE ( '' ) ;
#181 = APPROVAL_DATE_TIME ( #14, #55 ) ;
#182 = APPROVAL_ROLE ( '' ) ;
#183 = AXIS2_PLACEMENT_3D ( 'NONE', #125, #126, #54 ) ;
#184 = EDGE_CURVE ( 'NONE', #57, #57, #77, .T. ) ;
#185 = ORIENTED_EDGE ( 'NONE', *, *, #184, .T. ) ;
#186 = CARTESIAN_POINT ( 'NONE',  ( 7.559278840693715456E-16, -2.651438096812293172E-17, 0.2165063509461117586 ) ) ;
#187 = ORIENTED_EDGE ( 'NONE', *, *, #43, .F. ) ;
#188 = DIRECTION ( 'NONE',  ( 0.0000000000000000000, 1.000000000000000000, 0.0000000000000000000 ) ) ;
#189 = EDGE_LOOP ( 'NONE', ( #18 ) ) ;
#190 = EDGE_LOOP ( 'NONE', ( #15 ) ) ;
#191 = CONICAL_SURFACE ( 'NONE', #101, 0.3749999999999993894, 1.047197551196592968 ) ;
#192 = APPROVAL_STATUS ( 'not_yet_approved' ) ;
#193 = CC_DESIGN_PERSON_AND_ORGANIZATION_ASSIGNMENT ( #135, #118, ( #105 ) ) ;
#194 = VERTEX_POINT ( 'NONE', #91 ) ;
#195 = CIRCLE ( 'NONE', #167, 0.3750000000000001665 ) ;
#196 = DIRECTION ( 'NONE',  ( -5.135813185032637408E-31, -1.000000000000000000, -1.445602896647341628E-16 ) ) ;
#197 = CIRCLE ( 'NONE', #127, 0.3750000000000001665 ) ;
#198 = CALENDAR_DATE ( 2021, 8, 10 ) ;
#199 = CALENDAR_DATE ( 2021, 8, 10 ) ;
#200 = EDGE_CURVE ( 'NONE', #160, #160, #12, .T. ) ;
#201 = COORDINATED_UNIVERSAL_TIME_OFFSET ( 1, 0, .AHEAD. ) ;
#202 = EDGE_LOOP ( 'NONE', ( #206 ) ) ;
#203 = FACE_OUTER_BOUND ( 'NONE', #21, .T. ) ;
#204 = EDGE_LOOP ( 'NONE', ( #172 ) ) ;
#205 = CIRCLE ( 'NONE', #115, 0.3749999999999993894 ) ;
#206 = ORIENTED_EDGE ( 'NONE', *, *, #184, .F. ) ;
#207 = EDGE_CURVE ( 'NONE', #41, #41, #195, .T. ) ;
#208 = DIRECTION ( 'NONE',  ( 4.275831445896958607E-31, 1.000000000000000000, 1.224646799147353207E-16 ) ) ;
#209 =( NAMED_UNIT ( * ) SI_UNIT ( $, .STERADIAN. ) SOLID_ANGLE_UNIT ( ) );
#210 = CARTESIAN_POINT ( 'NONE',  ( 1.955229549752154995E-14, 0.3749999999999994449, 5.600000000000000533 ) ) ;
#211 = CYLINDRICAL_SURFACE ( 'NONE', #110, 0.3749999999999997780 ) ;
#212 = CARTESIAN_POINT ( 'NONE',  ( 0.0000000000000000000, 0.0000000000000000000, 0.0000000000000000000 ) ) ;
#213 = AXIS2_PLACEMENT_3D ( 'NONE', #90, #148, #95 ) ;
#214 = APPLICATION_PROTOCOL_DEFINITION ( 'international standard', 'config_control_design', 1994, #19 ) ;
#215 = PRODUCT ( '39031', '39031', '', ( #113 ) ) ;
#216 = CC_DESIGN_APPROVAL ( #55, ( #105 ) ) ;
#217 = DATE_AND_TIME ( #63, #150 ) ;
#218 = COORDINATED_UNIVERSAL_TIME_OFFSET ( 1, 0, .AHEAD. ) ;
#219 = CC_DESIGN_APPROVAL ( #109, ( #103 ) ) ;
#220 = ADVANCED_FACE ( 'NONE', ( #72 ), #191, .T. ) ;
#221 = PLANE ( 'NONE',  #81 ) ;
#222 = ORIENTED_EDGE ( 'NONE', *, *, #96, .F. ) ;
#223 = FACE_OUTER_BOUND ( 'NONE', #143, .T. ) ;
ENDSEC;
END-ISO-10303-21;
