ISO-10303-21;
HEADER;
FILE_DESCRIPTION (( 'STEP AP203' ),
    '1' );
FILE_NAME ('39030.step',
    '2021-10-08T05:53:45',
    ( '' ),
    ( '' ),
    'SwSTEP 2.0',
    'SolidWorks 2019',
    '' );
FILE_SCHEMA (( 'CONFIG_CONTROL_DESIGN' ));
ENDSEC;

DATA;
#1 = SHAPE_DEFINITION_REPRESENTATION ( #207, #105 ) ;
#2 = EDGE_CURVE ( 'NONE', #216, #216, #99, .T. ) ;
#3 = ORIENTED_EDGE ( 'NONE', *, *, #6, .F. ) ;
#4 = APPROVAL_PERSON_ORGANIZATION ( #189, #67, #13 ) ;
#5 = DIRECTION ( 'NONE',  ( 3.491481338843133355E-15, -1.224646799147353207E-16, 1.000000000000000000 ) ) ;
#6 = EDGE_CURVE ( 'NONE', #98, #98, #59, .T. ) ;
#7 = AXIS2_PLACEMENT_3D ( 'NONE', #132, #100, #77 ) ;
#8 = ADVANCED_FACE ( 'NONE', ( #160 ), #126, .T. ) ;
#9 = PERSON ( 'UNSPECIFIED', 'UNSPECIFIED', 'UNSPECIFIED', ('UNSPECIFIED'), ('UNSPECIFIED'), ('UNSPECIFIED') ) ;
#10 = CARTESIAN_POINT ( 'NONE',  ( 1.047444401652940007E-13, -3.673940397442059178E-15, 30.00000000000000000 ) ) ;
#11 =( NAMED_UNIT ( * ) SI_UNIT ( $, .STERADIAN. ) SOLID_ANGLE_UNIT ( ) );
#12 = PRODUCT_RELATED_PRODUCT_CATEGORY ( 'detail', '', ( #122 ) ) ;
#13 = APPROVAL_ROLE ( '' ) ;
#14 = EDGE_CURVE ( 'NONE', #213, #213, #46, .T. ) ;
#15 = DATE_AND_TIME ( #68, #215 ) ;
#16 = DATE_AND_TIME ( #83, #209 ) ;
#17 = EDGE_LOOP ( 'NONE', ( #143 ) ) ;
#18 = CIRCLE ( 'NONE', #50, 0.4999999999999970024 ) ;
#19 = ADVANCED_FACE ( 'NONE', ( #128 ), #195, .F. ) ;
#20 = CARTESIAN_POINT ( 'NONE',  ( 1.043952920314096936E-13, -3.661693929450586610E-15, 29.90000000000000213 ) ) ;
#21 = CARTESIAN_POINT ( 'NONE',  ( 1.745740669421566678E-14, -6.123233995736766282E-16, 5.000000000000000000 ) ) ;
#22 = EDGE_LOOP ( 'NONE', ( #155 ) ) ;
#23 = ADVANCED_FACE ( 'NONE', ( #193, #95 ), #86, .T. ) ;
#24 = FACE_OUTER_BOUND ( 'NONE', #212, .T. ) ;
#25 = CC_DESIGN_DATE_AND_TIME_ASSIGNMENT ( #15, #221, ( #198 ) ) ;
#26 = FACE_OUTER_BOUND ( 'NONE', #107, .T. ) ;
#27 = CARTESIAN_POINT ( 'NONE',  ( 0.0000000000000000000, 0.0000000000000000000, 0.0000000000000000000 ) ) ;
#28 = APPROVAL_ROLE ( '' ) ;
#29 = APPROVAL_STATUS ( 'not_yet_approved' ) ;
#30 = CALENDAR_DATE ( 2021, 8, 10 ) ;
#31 = CARTESIAN_POINT ( 'NONE',  ( 0.0000000000000000000, 0.0000000000000000000, 0.0000000000000000000 ) ) ;
#32 = PERSON_AND_ORGANIZATION_ROLE ( 'design_supplier' ) ;
#33 = CC_DESIGN_PERSON_AND_ORGANIZATION_ASSIGNMENT ( #154, #121, ( #114 ) ) ;
#34 = ORGANIZATION ( 'UNSPECIFIED', 'UNSPECIFIED', '' ) ;
#35 = EDGE_LOOP ( 'NONE', ( #127 ) ) ;
#36 = ORIENTED_EDGE ( 'NONE', *, *, #2, .F. ) ;
#37 = ADVANCED_FACE ( 'NONE', ( #26 ), #78, .F. ) ;
#38 = LOCAL_TIME ( 7, 53, 45.00000000000000000, #190 ) ;
#39 = DIRECTION ( 'NONE',  ( -3.491481338843133355E-15, 1.224646799147353207E-16, -1.000000000000000000 ) ) ;
#40 = CARTESIAN_POINT ( 'NONE',  ( 1.047444401652940007E-13, 2.999519565323651582E-33, 30.00000000000000000 ) ) ;
#41 = FACE_OUTER_BOUND ( 'NONE', #109, .T. ) ;
#42 = CC_DESIGN_APPROVAL ( #169, ( #114 ) ) ;
#43 = PRODUCT_DEFINITION_FORMATION_WITH_SPECIFIED_SOURCE ( 'ANY', '', #122, .NOT_KNOWN. ) ;
#44 = VERTEX_POINT ( 'NONE', #133 ) ;
#45 = CARTESIAN_POINT ( 'NONE',  ( 1.745740669421566678E-14, 0.3249999999999993450, 5.000000000000000000 ) ) ;
#46 = CIRCLE ( 'NONE', #73, 0.3249999999999999556 ) ;
#47 = DIRECTION ( 'NONE',  ( 0.0000000000000000000, 1.000000000000000000, 0.0000000000000000000 ) ) ;
#48 = ADVANCED_FACE ( 'NONE', ( #80 ), #140, .T. ) ;
#49 = DIRECTION ( 'NONE',  ( 1.000000000000000000, 0.0000000000000000000, 0.0000000000000000000 ) ) ;
#50 = AXIS2_PLACEMENT_3D ( 'NONE', #148, #129, #76 ) ;
#51 = SECURITY_CLASSIFICATION_LEVEL ( 'unclassified' ) ;
#52 = DESIGN_CONTEXT ( 'detailed design', #149, 'design' ) ;
#53 = PERSON_AND_ORGANIZATION ( #9, #34 ) ;
#54 = EDGE_LOOP ( 'NONE', ( #180 ) ) ;
#55 = CLOSED_SHELL ( 'NONE', ( #48, #158, #8 ) ) ;
#56 = DIRECTION ( 'NONE',  ( 0.0000000000000000000, 1.000000000000000000, 0.0000000000000000000 ) ) ;
#57 = EDGE_LOOP ( 'NONE', ( #58 ) ) ;
#58 = ORIENTED_EDGE ( 'NONE', *, *, #138, .F. ) ;
#59 = CIRCLE ( 'NONE', #214, 0.4999999999999989453 ) ;
#60 = DIRECTION ( 'NONE',  ( -3.491481338843133355E-15, 1.224646799147353207E-16, -1.000000000000000000 ) ) ;
#61 = DIRECTION ( 'NONE',  ( -2.962969145211137101E-31, -1.000000000000000000, -8.340016711426971312E-17 ) ) ;
#62 = CARTESIAN_POINT ( 'NONE',  ( 1.745740669421566678E-14, 0.3249999999999993450, 5.000000000000000000 ) ) ;
#63 = CARTESIAN_POINT ( 'NONE',  ( 1.745740669421566678E-14, -6.123233995736766282E-16, 5.000000000000000000 ) ) ;
#64 = CARTESIAN_POINT ( 'NONE',  ( 1.047444401652940007E-13, 0.3999999999999951927, 30.00000000000000000 ) ) ;
#65 = VERTEX_POINT ( 'NONE', #64 ) ;
#66 = AXIS2_PLACEMENT_3D ( 'NONE', #40, #161, #139 ) ;
#67 = APPROVAL ( #102, 'UNSPECIFIED' ) ;
#68 = CALENDAR_DATE ( 2021, 8, 10 ) ;
#69 = DATE_AND_TIME ( #84, #120 ) ;
#70 = CALENDAR_DATE ( 2021, 8, 10 ) ;
#71 = AXIS2_PLACEMENT_3D ( 'NONE', #31, #188, #49 ) ;
#72 = MECHANICAL_CONTEXT ( 'NONE', #137, 'mechanical' ) ;
#73 = AXIS2_PLACEMENT_3D ( 'NONE', #21, #60, #56 ) ;
#74 = CARTESIAN_POINT ( 'NONE',  ( 6.551374995267887583E-16, -2.297913017237320954E-17, 0.1876388374866302111 ) ) ;
#75 = EDGE_LOOP ( 'NONE', ( #36 ) ) ;
#76 = DIRECTION ( 'NONE',  ( 0.0000000000000000000, 1.000000000000000000, 0.0000000000000000000 ) ) ;
#77 = DIRECTION ( 'NONE',  ( 4.275831445896958607E-31, 1.000000000000000000, 1.224646799147353207E-16 ) ) ;
#78 = PLANE ( 'NONE',  #124 ) ;
#79 = AXIS2_PLACEMENT_3D ( 'NONE', #184, #111, #187 ) ;
#80 = FACE_OUTER_BOUND ( 'NONE', #176, .T. ) ;
#81 = DIRECTION ( 'NONE',  ( 3.491481338843133355E-15, -1.224646799147353207E-16, 1.000000000000000000 ) ) ;
#82 = AXIS2_PLACEMENT_3D ( 'NONE', #27, #168, #218 ) ;
#83 = CALENDAR_DATE ( 2021, 8, 10 ) ;
#84 = CALENDAR_DATE ( 2021, 8, 10 ) ;
#85 = ADVANCED_FACE ( 'NONE', ( #115, #185 ), #89, .T. ) ;
#86 = CONICAL_SURFACE ( 'NONE', #197, 0.3999999999999988565, 0.7853981633974689291 ) ;
#87 = PERSON_AND_ORGANIZATION ( #9, #34 ) ;
#88 = EDGE_CURVE ( 'NONE', #163, #163, #119, .T. ) ;
#89 = CONICAL_SURFACE ( 'NONE', #79, 0.4999999999999970024, 0.2617993877991428575 ) ;
#90 = ORIENTED_EDGE ( 'NONE', *, *, #138, .T. ) ;
#91 = APPROVAL_PERSON_ORGANIZATION ( #103, #174, #116 ) ;
#92 = DIRECTION ( 'NONE',  ( 2.962969145211137101E-31, 1.000000000000000000, 8.340016711426971312E-17 ) ) ;
#93 = CARTESIAN_POINT ( 'NONE',  ( 1.745740669421566678E-14, 2.437109646825509376E-33, 5.000000000000000000 ) ) ;
#94 = AXIS2_PLACEMENT_3D ( 'NONE', #93, #5, #179 ) ;
#95 = FACE_BOUND ( 'NONE', #159, .T. ) ;
#96 = CC_DESIGN_DATE_AND_TIME_ASSIGNMENT ( #208, #117, ( #114 ) ) ;
#97 =( NAMED_UNIT ( * ) PLANE_ANGLE_UNIT ( ) SI_UNIT ( $, .RADIAN. ) );
#98 = VERTEX_POINT ( 'NONE', #217 ) ;
#99 = CIRCLE ( 'NONE', #171, 0.3249999999999994560 ) ;
#100 = DIRECTION ( 'NONE',  ( -3.491481338843133355E-15, 1.224646799147353207E-16, -1.000000000000000000 ) ) ;
#101 = DIRECTION ( 'NONE',  ( 3.491481338843133355E-15, -1.224646799147353207E-16, 1.000000000000000000 ) ) ;
#102 = APPROVAL_STATUS ( 'not_yet_approved' ) ;
#103 = PERSON_AND_ORGANIZATION ( #9, #34 ) ;
#104 = DATE_AND_TIME ( #30, #205 ) ;
#105 = ADVANCED_BREP_SHAPE_REPRESENTATION ( '39030', ( #166, #164, #71 ), #177 ) ;
#106 = COORDINATED_UNIVERSAL_TIME_OFFSET ( 1, 0, .AHEAD. ) ;
#107 = EDGE_LOOP ( 'NONE', ( #141 ) ) ;
#108 = CC_DESIGN_PERSON_AND_ORGANIZATION_ASSIGNMENT ( #151, #172, ( #198 ) ) ;
#109 = EDGE_LOOP ( 'NONE', ( #144 ) ) ;
#110 = EDGE_LOOP ( 'NONE', ( #3 ) ) ;
#111 = DIRECTION ( 'NONE',  ( 3.491481338843133355E-15, -1.224646799147353207E-16, 1.000000000000000000 ) ) ;
#112 = DIRECTION ( 'NONE',  ( -3.491481338843133355E-15, 1.224646799147353207E-16, -1.000000000000000000 ) ) ;
#113 = DIRECTION ( 'NONE',  ( -3.491481338843133355E-15, 1.224646799147353207E-16, -1.000000000000000000 ) ) ;
#114 = PRODUCT_DEFINITION ( 'UNKNOWN', '', #43, #52 ) ;
#115 = FACE_BOUND ( 'NONE', #17, .T. ) ;
#116 = APPROVAL_ROLE ( '' ) ;
#117 = DATE_TIME_ROLE ( 'creation_date' ) ;
#118 = CC_DESIGN_PERSON_AND_ORGANIZATION_ASSIGNMENT ( #87, #173, ( #122 ) ) ;
#119 = CIRCLE ( 'NONE', #203, 0.3249999999999999556 ) ;
#120 = LOCAL_TIME ( 7, 53, 45.00000000000000000, #106 ) ;
#121 = PERSON_AND_ORGANIZATION_ROLE ( 'creator' ) ;
#122 = PRODUCT ( '39030', '39030', '', ( #72 ) ) ;
#123 = APPROVAL_STATUS ( 'not_yet_approved' ) ;
#124 = AXIS2_PLACEMENT_3D ( 'NONE', #130, #101, #199 ) ;
#125 = DIRECTION ( 'NONE',  ( -3.491481338843133355E-15, 1.224646799147353207E-16, -1.000000000000000000 ) ) ;
#126 = PLANE ( 'NONE',  #94 ) ;
#127 = ORIENTED_EDGE ( 'NONE', *, *, #200, .F. ) ;
#128 = FACE_OUTER_BOUND ( 'NONE', #57, .T. ) ;
#129 = DIRECTION ( 'NONE',  ( -3.491481338843133355E-15, 1.224646799147353207E-16, -1.000000000000000000 ) ) ;
#130 = CARTESIAN_POINT ( 'NONE',  ( 1.745740669421566678E-14, 2.437109646825509376E-33, 5.000000000000000000 ) ) ;
#131 = CC_DESIGN_SECURITY_CLASSIFICATION ( #198, ( #43 ) ) ;
#132 = CARTESIAN_POINT ( 'NONE',  ( 0.0000000000000000000, 0.0000000000000000000, 0.0000000000000000000 ) ) ;
#133 = CARTESIAN_POINT ( 'NONE',  ( 1.973772420050789628E-14, 0.4999999999999963363, 5.653108891324559515 ) ) ;
#134 = COORDINATED_UNIVERSAL_TIME_OFFSET ( 1, 0, .AHEAD. ) ;
#135 = APPLICATION_PROTOCOL_DEFINITION ( 'international standard', 'config_control_design', 1994, #149 ) ;
#136 = COORDINATED_UNIVERSAL_TIME_OFFSET ( 1, 0, .AHEAD. ) ;
#137 = APPLICATION_CONTEXT ( 'configuration controlled 3d designs of mechanical parts and assemblies' ) ;
#138 = EDGE_CURVE ( 'NONE', #65, #65, #182, .T. ) ;
#139 = DIRECTION ( 'NONE',  ( 4.275831445896958607E-31, 1.000000000000000000, 1.224646799147353207E-16 ) ) ;
#140 = CONICAL_SURFACE ( 'NONE', #156, 0.3249999999999994560, 1.047197551196592746 ) ;
#141 = ORIENTED_EDGE ( 'NONE', *, *, #14, .T. ) ;
#142 = DIRECTION ( 'NONE',  ( 0.0000000000000000000, 1.000000000000000000, 0.0000000000000000000 ) ) ;
#143 = ORIENTED_EDGE ( 'NONE', *, *, #14, .F. ) ;
#144 = ORIENTED_EDGE ( 'NONE', *, *, #88, .T. ) ;
#145 = CYLINDRICAL_SURFACE ( 'NONE', #82, 0.4999999999999979461 ) ;
#146 = DIRECTION ( 'NONE',  ( -3.491481338843133355E-15, 1.224646799147353207E-16, -1.000000000000000000 ) ) ;
#147 = FACE_OUTER_BOUND ( 'NONE', #35, .T. ) ;
#148 = CARTESIAN_POINT ( 'NONE',  ( 1.973772420050789628E-14, -6.923061708992063759E-16, 5.653108891324559515 ) ) ;
#149 = APPLICATION_CONTEXT ( 'configuration controlled 3d designs of mechanical parts and assemblies' ) ;
#150 = APPLICATION_PROTOCOL_DEFINITION ( 'international standard', 'config_control_design', 1994, #137 ) ;
#151 = PERSON_AND_ORGANIZATION ( #9, #34 ) ;
#152 = PERSON_AND_ORGANIZATION ( #9, #34 ) ;
#153 = APPROVAL_DATE_TIME ( #69, #174 ) ;
#154 = PERSON_AND_ORGANIZATION ( #9, #34 ) ;
#155 = ORIENTED_EDGE ( 'NONE', *, *, #88, .F. ) ;
#156 = AXIS2_PLACEMENT_3D ( 'NONE', #183, #81, #61 ) ;
#157 = CC_DESIGN_APPROVAL ( #67, ( #43 ) ) ;
#158 = ADVANCED_FACE ( 'NONE', ( #167, #41 ), #162, .T. ) ;
#159 = EDGE_LOOP ( 'NONE', ( #90 ) ) ;
#160 = FACE_OUTER_BOUND ( 'NONE', #22, .T. ) ;
#161 = DIRECTION ( 'NONE',  ( -3.491481338843133355E-15, 1.224646799147353207E-16, -1.000000000000000000 ) ) ;
#162 = CYLINDRICAL_SURFACE ( 'NONE', #7, 0.3249999999999996780 ) ;
#163 = VERTEX_POINT ( 'NONE', #62 ) ;
#164 = MANIFOLD_SOLID_BREP ( 'Corps-Déplacer/Copier1[2]', #55 ) ;
#165 = CARTESIAN_POINT ( 'NONE',  ( 1.047444401652940007E-13, -3.673940397442059178E-15, 30.00000000000000000 ) ) ;
#166 = MANIFOLD_SOLID_BREP ( 'Corps-Déplacer/Copier1[1]', #220 ) ;
#167 = FACE_OUTER_BOUND ( 'NONE', #75, .T. ) ;
#168 = DIRECTION ( 'NONE',  ( -3.491481338843133355E-15, 1.224646799147353207E-16, -1.000000000000000000 ) ) ;
#169 = APPROVAL ( #123, 'UNSPECIFIED' ) ;
#170 = PERSON_AND_ORGANIZATION ( #9, #34 ) ;
#171 = AXIS2_PLACEMENT_3D ( 'NONE', #74, #125, #92 ) ;
#172 = PERSON_AND_ORGANIZATION_ROLE ( 'classification_officer' ) ;
#173 = PERSON_AND_ORGANIZATION_ROLE ( 'design_owner' ) ;
#174 = APPROVAL ( #29, 'UNSPECIFIED' ) ;
#175 = ORIENTED_EDGE ( 'NONE', *, *, #6, .T. ) ;
#176 = EDGE_LOOP ( 'NONE', ( #210 ) ) ;
#177 =( GEOMETRIC_REPRESENTATION_CONTEXT ( 3 ) GLOBAL_UNCERTAINTY_ASSIGNED_CONTEXT ( ( #191 ) ) GLOBAL_UNIT_ASSIGNED_CONTEXT ( ( #186, #97, #11 ) ) REPRESENTATION_CONTEXT ( 'NONE', 'WORKASPACE' ) );
#178 = CC_DESIGN_APPROVAL ( #174, ( #198 ) ) ;
#179 = DIRECTION ( 'NONE',  ( -4.275831445896958607E-31, -1.000000000000000000, -1.224646799147353207E-16 ) ) ;
#180 = ORIENTED_EDGE ( 'NONE', *, *, #200, .T. ) ;
#181 = APPROVAL_PERSON_ORGANIZATION ( #152, #169, #28 ) ;
#182 = CIRCLE ( 'NONE', #211, 0.3999999999999988565 ) ;
#183 = CARTESIAN_POINT ( 'NONE',  ( 6.551374995267887583E-16, -2.297913017237320954E-17, 0.1876388374866302111 ) ) ;
#184 = CARTESIAN_POINT ( 'NONE',  ( 1.973772420050789628E-14, -6.923061708992063759E-16, 5.653108891324559515 ) ) ;
#185 = FACE_OUTER_BOUND ( 'NONE', #54, .T. ) ;
#186 =( LENGTH_UNIT ( ) NAMED_UNIT ( * ) SI_UNIT ( .MILLI., .METRE. ) );
#187 = DIRECTION ( 'NONE',  ( 0.0000000000000000000, -1.000000000000000000, 0.0000000000000000000 ) ) ;
#188 = DIRECTION ( 'NONE',  ( 0.0000000000000000000, 0.0000000000000000000, 1.000000000000000000 ) ) ;
#189 = PERSON_AND_ORGANIZATION ( #9, #34 ) ;
#190 = COORDINATED_UNIVERSAL_TIME_OFFSET ( 1, 0, .AHEAD. ) ;
#191 = UNCERTAINTY_MEASURE_WITH_UNIT (LENGTH_MEASURE( 1.000000000000000082E-05 ), #186, 'distance_accuracy_value', 'NONE');
#192 = CC_DESIGN_PERSON_AND_ORGANIZATION_ASSIGNMENT ( #170, #32, ( #43 ) ) ;
#193 = FACE_OUTER_BOUND ( 'NONE', #110, .T. ) ;
#194 = CC_DESIGN_PERSON_AND_ORGANIZATION_ASSIGNMENT ( #53, #206, ( #43 ) ) ;
#195 = PLANE ( 'NONE',  #66 ) ;
#196 = DIRECTION ( 'NONE',  ( 0.0000000000000000000, 1.000000000000000000, 0.0000000000000000000 ) ) ;
#197 = AXIS2_PLACEMENT_3D ( 'NONE', #10, #113, #196 ) ;
#198 = SECURITY_CLASSIFICATION ( '', '', #51 ) ;
#199 = DIRECTION ( 'NONE',  ( -4.275831445896958607E-31, -1.000000000000000000, -1.224646799147353207E-16 ) ) ;
#200 = EDGE_CURVE ( 'NONE', #44, #44, #18, .T. ) ;
#201 = CARTESIAN_POINT ( 'NONE',  ( 6.551374995267888569E-16, 0.3249999999999994560, 0.1876388374866302389 ) ) ;
#202 = DIRECTION ( 'NONE',  ( 0.0000000000000000000, 1.000000000000000000, 0.0000000000000000000 ) ) ;
#203 = AXIS2_PLACEMENT_3D ( 'NONE', #63, #146, #202 ) ;
#204 = APPROVAL_DATE_TIME ( #104, #67 ) ;
#205 = LOCAL_TIME ( 7, 53, 45.00000000000000000, #136 ) ;
#206 = PERSON_AND_ORGANIZATION_ROLE ( 'creator' ) ;
#207 = PRODUCT_DEFINITION_SHAPE ( 'NONE', 'NONE',  #114 ) ;
#208 = DATE_AND_TIME ( #70, #38 ) ;
#209 = LOCAL_TIME ( 7, 53, 45.00000000000000000, #134 ) ;
#210 = ORIENTED_EDGE ( 'NONE', *, *, #2, .T. ) ;
#211 = AXIS2_PLACEMENT_3D ( 'NONE', #165, #112, #47 ) ;
#212 = EDGE_LOOP ( 'NONE', ( #175 ) ) ;
#213 = VERTEX_POINT ( 'NONE', #45 ) ;
#214 = AXIS2_PLACEMENT_3D ( 'NONE', #20, #39, #142 ) ;
#215 = LOCAL_TIME ( 7, 53, 45.00000000000000000, #219 ) ;
#216 = VERTEX_POINT ( 'NONE', #201 ) ;
#217 = CARTESIAN_POINT ( 'NONE',  ( 1.043952920314096936E-13, 0.4999999999999952260, 29.90000000000000213 ) ) ;
#218 = DIRECTION ( 'NONE',  ( 4.275831445896958607E-31, 1.000000000000000000, 1.224646799147352961E-16 ) ) ;
#219 = COORDINATED_UNIVERSAL_TIME_OFFSET ( 1, 0, .AHEAD. ) ;
#220 = CLOSED_SHELL ( 'NONE', ( #37, #85, #223, #23, #19 ) ) ;
#221 = DATE_TIME_ROLE ( 'classification_date' ) ;
#222 = APPROVAL_DATE_TIME ( #16, #169 ) ;
#223 = ADVANCED_FACE ( 'NONE', ( #147, #24 ), #145, .T. ) ;
ENDSEC;
END-ISO-10303-21;
