ISO-10303-21;
HEADER;
FILE_DESCRIPTION (( 'STEP AP203' ),
    '1' );
FILE_NAME ('39029.step',
    '2021-10-08T05:53:45',
    ( '' ),
    ( '' ),
    'SwSTEP 2.0',
    'SolidWorks 2019',
    '' );
FILE_SCHEMA (( 'CONFIG_CONTROL_DESIGN' ));
ENDSEC;

DATA;
#1 = DIRECTION ( 'NONE',  ( -3.491481338843133355E-15, 1.224646799147353207E-16, -1.000000000000000000 ) ) ;
#2 = LOCAL_TIME ( 7, 53, 45.00000000000000000, #128 ) ;
#3 = FACE_OUTER_BOUND ( 'NONE', #145, .T. ) ;
#4 = CARTESIAN_POINT ( 'NONE',  ( 1.864350281859839968E-14, 0.4999999999999963363, 5.339711431703006994 ) ) ;
#5 = AXIS2_PLACEMENT_3D ( 'NONE', #31, #16, #82 ) ;
#6 = CARTESIAN_POINT ( 'NONE',  ( 1.571166602479410325E-14, 0.2749999999999995226, 4.500000000000000888 ) ) ;
#7 = DIRECTION ( 'NONE',  ( 0.0000000000000000000, 0.0000000000000000000, 1.000000000000000000 ) ) ;
#8 = CC_DESIGN_APPROVAL ( #201, ( #58 ) ) ;
#9 = PERSON_AND_ORGANIZATION_ROLE ( 'design_supplier' ) ;
#10 = APPLICATION_CONTEXT ( 'configuration controlled 3d designs of mechanical parts and assemblies' ) ;
#11 = CC_DESIGN_DATE_AND_TIME_ASSIGNMENT ( #70, #57, ( #58 ) ) ;
#12 = APPROVAL_STATUS ( 'not_yet_approved' ) ;
#13 = ORIENTED_EDGE ( 'NONE', *, *, #153, .F. ) ;
#14 = ORIENTED_EDGE ( 'NONE', *, *, #178, .F. ) ;
#15 = DIRECTION ( 'NONE',  ( 0.0000000000000000000, 1.000000000000000000, 0.0000000000000000000 ) ) ;
#16 = DIRECTION ( 'NONE',  ( -3.491481338843133355E-15, 1.224646799147353207E-16, -1.000000000000000000 ) ) ;
#17 = CARTESIAN_POINT ( 'NONE',  ( 1.864350281859839968E-14, -6.539260513205618123E-16, 5.339711431703006994 ) ) ;
#18 = DIRECTION ( 'NONE',  ( 3.491481338843133355E-15, -1.224646799147353207E-16, 1.000000000000000000 ) ) ;
#19 = MANIFOLD_SOLID_BREP ( 'Corps-Déplacer/Copier1[1]', #120 ) ;
#20 = CARTESIAN_POINT ( 'NONE',  ( 1.043952920314096936E-13, -3.661693929450586610E-15, 29.90000000000000213 ) ) ;
#21 = ADVANCED_FACE ( 'NONE', ( #203 ), #46, .F. ) ;
#22 =( NAMED_UNIT ( * ) PLANE_ANGLE_UNIT ( ) SI_UNIT ( $, .RADIAN. ) );
#23 = VERTEX_POINT ( 'NONE', #103 ) ;
#24 = CARTESIAN_POINT ( 'NONE',  ( 1.043952920314096936E-13, 0.4999999999999952260, 29.90000000000000213 ) ) ;
#25 = PERSON_AND_ORGANIZATION ( #181, #179 ) ;
#26 = LOCAL_TIME ( 7, 53, 45.00000000000000000, #217 ) ;
#27 = CLOSED_SHELL ( 'NONE', ( #135, #183, #56 ) ) ;
#28 = EDGE_LOOP ( 'NONE', ( #74 ) ) ;
#29 = ORIENTED_EDGE ( 'NONE', *, *, #32, .T. ) ;
#30 = CARTESIAN_POINT ( 'NONE',  ( 1.047444401652940007E-13, 2.999519565323651582E-33, 30.00000000000000000 ) ) ;
#31 = CARTESIAN_POINT ( 'NONE',  ( 0.0000000000000000000, 0.0000000000000000000, 0.0000000000000000000 ) ) ;
#32 = EDGE_CURVE ( 'NONE', #150, #150, #142, .T. ) ;
#33 = CARTESIAN_POINT ( 'NONE',  ( 1.571166602479410325E-14, -1.041590079118783227E-31, 4.500000000000000888 ) ) ;
#34 =( GEOMETRIC_REPRESENTATION_CONTEXT ( 3 ) GLOBAL_UNCERTAINTY_ASSIGNED_CONTEXT ( ( #104 ) ) GLOBAL_UNIT_ASSIGNED_CONTEXT ( ( #141, #22, #158 ) ) REPRESENTATION_CONTEXT ( 'NONE', 'WORKASPACE' ) );
#35 = DIRECTION ( 'NONE',  ( 3.501690807976798710E-31, 1.000000000000000000, 9.856383386231876083E-17 ) ) ;
#36 = CARTESIAN_POINT ( 'NONE',  ( 0.0000000000000000000, 0.0000000000000000000, 0.0000000000000000000 ) ) ;
#37 = APPROVAL_DATE_TIME ( #40, #157 ) ;
#38 = LOCAL_TIME ( 7, 53, 45.00000000000000000, #180 ) ;
#39 = CALENDAR_DATE ( 2021, 8, 10 ) ;
#40 = DATE_AND_TIME ( #39, #88 ) ;
#41 = EDGE_LOOP ( 'NONE', ( #170 ) ) ;
#42 = APPROVAL_PERSON_ORGANIZATION ( #140, #157, #160 ) ;
#43 = ADVANCED_BREP_SHAPE_REPRESENTATION ( '39029', ( #19, #167, #44 ), #34 ) ;
#44 = AXIS2_PLACEMENT_3D ( 'NONE', #36, #7, #138 ) ;
#45 = AXIS2_PLACEMENT_3D ( 'NONE', #62, #100, #15 ) ;
#46 = PLANE ( 'NONE',  #151 ) ;
#47 = FACE_OUTER_BOUND ( 'NONE', #41, .T. ) ;
#48 = EDGE_CURVE ( 'NONE', #173, #173, #69, .T. ) ;
#49 = CYLINDRICAL_SURFACE ( 'NONE', #5, 0.4999999999999979461 ) ;
#50 = CARTESIAN_POINT ( 'NONE',  ( 1.047444401652940007E-13, -3.673940397442059178E-15, 30.00000000000000000 ) ) ;
#51 = FACE_OUTER_BOUND ( 'NONE', #220, .T. ) ;
#52 = CARTESIAN_POINT ( 'NONE',  ( 1.864350281859839968E-14, -6.539260513205618123E-16, 5.339711431703006994 ) ) ;
#53 = DESIGN_CONTEXT ( 'detailed design', #10, 'design' ) ;
#54 = VERTEX_POINT ( 'NONE', #24 ) ;
#55 = LOCAL_TIME ( 7, 53, 45.00000000000000000, #127 ) ;
#56 = ADVANCED_FACE ( 'NONE', ( #3 ), #134, .T. ) ;
#57 = DATE_TIME_ROLE ( 'creation_date' ) ;
#58 = PRODUCT_DEFINITION ( 'UNKNOWN', '', #91, #53 ) ;
#59 = CALENDAR_DATE ( 2021, 8, 10 ) ;
#60 = CIRCLE ( 'NONE', #139, 0.3999999999999988565 ) ;
#61 = AXIS2_PLACEMENT_3D ( 'NONE', #17, #194, #133 ) ;
#62 = CARTESIAN_POINT ( 'NONE',  ( 1.047444401652940007E-13, -3.673940397442059178E-15, 30.00000000000000000 ) ) ;
#63 = FACE_BOUND ( 'NONE', #189, .T. ) ;
#64 = DIRECTION ( 'NONE',  ( -4.275831445896958607E-31, -1.000000000000000000, -1.224646799147353207E-16 ) ) ;
#65 = CARTESIAN_POINT ( 'NONE',  ( 5.543471149842058724E-16, -1.944387937662348429E-17, 0.1587713240271486359 ) ) ;
#66 = DIRECTION ( 'NONE',  ( -3.491481338843133355E-15, 1.224646799147353207E-16, -1.000000000000000000 ) ) ;
#67 = CC_DESIGN_SECURITY_CLASSIFICATION ( #146, ( #91 ) ) ;
#68 = CARTESIAN_POINT ( 'NONE',  ( 1.571166602479410325E-14, 0.2749999999999995226, 4.500000000000000888 ) ) ;
#69 = CIRCLE ( 'NONE', #190, 0.2750000000000000777 ) ;
#70 = DATE_AND_TIME ( #177, #38 ) ;
#71 = APPLICATION_PROTOCOL_DEFINITION ( 'international standard', 'config_control_design', 1994, #94 ) ;
#72 = ADVANCED_FACE ( 'NONE', ( #210, #174 ), #111, .T. ) ;
#73 = SHAPE_DEFINITION_REPRESENTATION ( #136, #43 ) ;
#74 = ORIENTED_EDGE ( 'NONE', *, *, #48, .F. ) ;
#75 = EDGE_LOOP ( 'NONE', ( #110 ) ) ;
#76 = AXIS2_PLACEMENT_3D ( 'NONE', #97, #86, #35 ) ;
#77 = CALENDAR_DATE ( 2021, 8, 10 ) ;
#78 = DATE_AND_TIME ( #77, #2 ) ;
#79 = EDGE_LOOP ( 'NONE', ( #14 ) ) ;
#80 = AXIS2_PLACEMENT_3D ( 'NONE', #176, #66, #206 ) ;
#81 = CARTESIAN_POINT ( 'NONE',  ( 1.571166602479410325E-14, -5.510910596163089556E-16, 4.500000000000000888 ) ) ;
#82 = DIRECTION ( 'NONE',  ( 4.275831445896958607E-31, 1.000000000000000000, 1.224646799147352961E-16 ) ) ;
#83 = DIRECTION ( 'NONE',  ( 0.0000000000000000000, 1.000000000000000000, 0.0000000000000000000 ) ) ;
#84 = ADVANCED_FACE ( 'NONE', ( #47, #63 ), #106, .T. ) ;
#85 = AXIS2_PLACEMENT_3D ( 'NONE', #33, #208, #64 ) ;
#86 = DIRECTION ( 'NONE',  ( -3.491481338843133355E-15, 1.224646799147353207E-16, -1.000000000000000000 ) ) ;
#87 = SECURITY_CLASSIFICATION_LEVEL ( 'unclassified' ) ;
#88 = LOCAL_TIME ( 7, 53, 45.00000000000000000, #216 ) ;
#89 = VERTEX_POINT ( 'NONE', #6 ) ;
#90 = PERSON_AND_ORGANIZATION ( #181, #179 ) ;
#91 = PRODUCT_DEFINITION_FORMATION_WITH_SPECIFIED_SOURCE ( 'ANY', '', #163, .NOT_KNOWN. ) ;
#92 = EDGE_LOOP ( 'NONE', ( #143 ) ) ;
#93 = ORIENTED_EDGE ( 'NONE', *, *, #32, .F. ) ;
#94 = APPLICATION_CONTEXT ( 'configuration controlled 3d designs of mechanical parts and assemblies' ) ;
#95 = APPROVAL_PERSON_ORGANIZATION ( #156, #201, #184 ) ;
#96 = EDGE_LOOP ( 'NONE', ( #165 ) ) ;
#97 = CARTESIAN_POINT ( 'NONE',  ( 5.543471149842058724E-16, -1.944387937662348429E-17, 0.1587713240271486359 ) ) ;
#98 = DIRECTION ( 'NONE',  ( -4.275831445896958607E-31, -1.000000000000000000, -1.224646799147353207E-16 ) ) ;
#99 = DIRECTION ( 'NONE',  ( -3.491481338843133355E-15, 1.224646799147353207E-16, -1.000000000000000000 ) ) ;
#100 = DIRECTION ( 'NONE',  ( -3.491481338843133355E-15, 1.224646799147353207E-16, -1.000000000000000000 ) ) ;
#101 = CYLINDRICAL_SURFACE ( 'NONE', #80, 0.2749999999999998002 ) ;
#102 = APPROVAL_STATUS ( 'not_yet_approved' ) ;
#103 = CARTESIAN_POINT ( 'NONE',  ( 1.047444401652940007E-13, 0.3999999999999951927, 30.00000000000000000 ) ) ;
#104 = UNCERTAINTY_MEASURE_WITH_UNIT (LENGTH_MEASURE( 1.000000000000000082E-05 ), #141, 'distance_accuracy_value', 'NONE');
#105 = PERSON_AND_ORGANIZATION ( #181, #179 ) ;
#106 = CONICAL_SURFACE ( 'NONE', #45, 0.3999999999999988565, 0.7853981633974689291 ) ;
#107 = PERSON_AND_ORGANIZATION_ROLE ( 'creator' ) ;
#108 = ORIENTED_EDGE ( 'NONE', *, *, #178, .T. ) ;
#109 = CC_DESIGN_PERSON_AND_ORGANIZATION_ASSIGNMENT ( #213, #125, ( #163 ) ) ;
#110 = ORIENTED_EDGE ( 'NONE', *, *, #153, .T. ) ;
#111 = CONICAL_SURFACE ( 'NONE', #200, 0.4999999999999970024, 0.2617993877991432461 ) ;
#112 = APPROVAL ( #12, 'UNSPECIFIED' ) ;
#113 = CARTESIAN_POINT ( 'NONE',  ( 1.571166602479410325E-14, -1.041590079118783227E-31, 4.500000000000000888 ) ) ;
#114 = FACE_OUTER_BOUND ( 'NONE', #75, .T. ) ;
#115 = PLANE ( 'NONE',  #159 ) ;
#116 = FACE_OUTER_BOUND ( 'NONE', #96, .T. ) ;
#117 = PRODUCT_RELATED_PRODUCT_CATEGORY ( 'detail', '', ( #163 ) ) ;
#118 = DIRECTION ( 'NONE',  ( -3.501690807976798710E-31, -1.000000000000000000, -9.856383386231876083E-17 ) ) ;
#119 = DIRECTION ( 'NONE',  ( 0.0000000000000000000, 1.000000000000000000, 0.0000000000000000000 ) ) ;
#120 = CLOSED_SHELL ( 'NONE', ( #21, #72, #221, #84, #211 ) ) ;
#121 = AXIS2_PLACEMENT_3D ( 'NONE', #20, #1, #131 ) ;
#122 = APPROVAL_DATE_TIME ( #196, #201 ) ;
#123 = APPROVAL_STATUS ( 'not_yet_approved' ) ;
#124 = EDGE_CURVE ( 'NONE', #218, #218, #204, .T. ) ;
#125 = PERSON_AND_ORGANIZATION_ROLE ( 'design_owner' ) ;
#126 = APPROVAL_DATE_TIME ( #78, #112 ) ;
#127 = COORDINATED_UNIVERSAL_TIME_OFFSET ( 1, 0, .AHEAD. ) ;
#128 = COORDINATED_UNIVERSAL_TIME_OFFSET ( 1, 0, .AHEAD. ) ;
#129 = CONICAL_SURFACE ( 'NONE', #161, 0.2749999999999995226, 1.047197551196592746 ) ;
#130 = EDGE_LOOP ( 'NONE', ( #93 ) ) ;
#131 = DIRECTION ( 'NONE',  ( 0.0000000000000000000, 1.000000000000000000, 0.0000000000000000000 ) ) ;
#132 = EDGE_CURVE ( 'NONE', #54, #54, #175, .T. ) ;
#133 = DIRECTION ( 'NONE',  ( 0.0000000000000000000, 1.000000000000000000, 0.0000000000000000000 ) ) ;
#134 = PLANE ( 'NONE',  #85 ) ;
#135 = ADVANCED_FACE ( 'NONE', ( #51 ), #129, .T. ) ;
#136 = PRODUCT_DEFINITION_SHAPE ( 'NONE', 'NONE',  #58 ) ;
#137 = PERSON_AND_ORGANIZATION_ROLE ( 'classification_officer' ) ;
#138 = DIRECTION ( 'NONE',  ( 1.000000000000000000, 0.0000000000000000000, 0.0000000000000000000 ) ) ;
#139 = AXIS2_PLACEMENT_3D ( 'NONE', #50, #212, #119 ) ;
#140 = PERSON_AND_ORGANIZATION ( #181, #179 ) ;
#141 =( LENGTH_UNIT ( ) NAMED_UNIT ( * ) SI_UNIT ( .MILLI., .METRE. ) );
#142 = CIRCLE ( 'NONE', #76, 0.2749999999999995226 ) ;
#143 = ORIENTED_EDGE ( 'NONE', *, *, #124, .T. ) ;
#144 = CC_DESIGN_APPROVAL ( #157, ( #91 ) ) ;
#145 = EDGE_LOOP ( 'NONE', ( #13 ) ) ;
#146 = SECURITY_CLASSIFICATION ( '', '', #87 ) ;
#147 = AXIS2_PLACEMENT_3D ( 'NONE', #81, #99, #83 ) ;
#148 = DIRECTION ( 'NONE',  ( -3.491481338843133355E-15, 1.224646799147353207E-16, -1.000000000000000000 ) ) ;
#149 = CC_DESIGN_PERSON_AND_ORGANIZATION_ASSIGNMENT ( #182, #199, ( #58 ) ) ;
#150 = VERTEX_POINT ( 'NONE', #193 ) ;
#151 = AXIS2_PLACEMENT_3D ( 'NONE', #113, #18, #98 ) ;
#152 = DIRECTION ( 'NONE',  ( 0.0000000000000000000, -1.000000000000000000, 0.0000000000000000000 ) ) ;
#153 = EDGE_CURVE ( 'NONE', #89, #89, #209, .T. ) ;
#154 = DIRECTION ( 'NONE',  ( 0.0000000000000000000, 1.000000000000000000, 0.0000000000000000000 ) ) ;
#155 = APPLICATION_PROTOCOL_DEFINITION ( 'international standard', 'config_control_design', 1994, #10 ) ;
#156 = PERSON_AND_ORGANIZATION ( #181, #179 ) ;
#157 = APPROVAL ( #123, 'UNSPECIFIED' ) ;
#158 =( NAMED_UNIT ( * ) SI_UNIT ( $, .STERADIAN. ) SOLID_ANGLE_UNIT ( ) );
#159 = AXIS2_PLACEMENT_3D ( 'NONE', #30, #148, #192 ) ;
#160 = APPROVAL_ROLE ( '' ) ;
#161 = AXIS2_PLACEMENT_3D ( 'NONE', #65, #172, #118 ) ;
#162 = CC_DESIGN_PERSON_AND_ORGANIZATION_ASSIGNMENT ( #90, #9, ( #91 ) ) ;
#163 = PRODUCT ( '39029', '39029', '', ( #197 ) ) ;
#164 = DATE_TIME_ROLE ( 'classification_date' ) ;
#165 = ORIENTED_EDGE ( 'NONE', *, *, #124, .F. ) ;
#166 = APPROVAL_PERSON_ORGANIZATION ( #219, #112, #186 ) ;
#167 = MANIFOLD_SOLID_BREP ( 'Corps-Déplacer/Copier1[2]', #27 ) ;
#168 = EDGE_LOOP ( 'NONE', ( #187 ) ) ;
#169 = DATE_AND_TIME ( #59, #55 ) ;
#170 = ORIENTED_EDGE ( 'NONE', *, *, #132, .F. ) ;
#171 = DIRECTION ( 'NONE',  ( -3.491481338843133355E-15, 1.224646799147353207E-16, -1.000000000000000000 ) ) ;
#172 = DIRECTION ( 'NONE',  ( 3.491481338843133355E-15, -1.224646799147353207E-16, 1.000000000000000000 ) ) ;
#173 = VERTEX_POINT ( 'NONE', #68 ) ;
#174 = FACE_OUTER_BOUND ( 'NONE', #92, .T. ) ;
#175 = CIRCLE ( 'NONE', #121, 0.4999999999999989453 ) ;
#176 = CARTESIAN_POINT ( 'NONE',  ( 0.0000000000000000000, 0.0000000000000000000, 0.0000000000000000000 ) ) ;
#177 = CALENDAR_DATE ( 2021, 8, 10 ) ;
#178 = EDGE_CURVE ( 'NONE', #23, #23, #60, .T. ) ;
#179 = ORGANIZATION ( 'UNSPECIFIED', 'UNSPECIFIED', '' ) ;
#180 = COORDINATED_UNIVERSAL_TIME_OFFSET ( 1, 0, .AHEAD. ) ;
#181 = PERSON ( 'UNSPECIFIED', 'UNSPECIFIED', 'UNSPECIFIED', ('UNSPECIFIED'), ('UNSPECIFIED'), ('UNSPECIFIED') ) ;
#182 = PERSON_AND_ORGANIZATION ( #181, #179 ) ;
#183 = ADVANCED_FACE ( 'NONE', ( #223, #114 ), #101, .T. ) ;
#184 = APPROVAL_ROLE ( '' ) ;
#185 = CC_DESIGN_APPROVAL ( #112, ( #146 ) ) ;
#186 = APPROVAL_ROLE ( '' ) ;
#187 = ORIENTED_EDGE ( 'NONE', *, *, #48, .T. ) ;
#188 = ORIENTED_EDGE ( 'NONE', *, *, #132, .T. ) ;
#189 = EDGE_LOOP ( 'NONE', ( #108 ) ) ;
#190 = AXIS2_PLACEMENT_3D ( 'NONE', #195, #171, #154 ) ;
#191 = FACE_OUTER_BOUND ( 'NONE', #79, .T. ) ;
#192 = DIRECTION ( 'NONE',  ( 4.275831445896958607E-31, 1.000000000000000000, 1.224646799147353207E-16 ) ) ;
#193 = CARTESIAN_POINT ( 'NONE',  ( 5.543471149842059711E-16, 0.2749999999999995226, 0.1587713240271486637 ) ) ;
#194 = DIRECTION ( 'NONE',  ( -3.491481338843133355E-15, 1.224646799147353207E-16, -1.000000000000000000 ) ) ;
#195 = CARTESIAN_POINT ( 'NONE',  ( 1.571166602479410325E-14, -5.510910596163089556E-16, 4.500000000000000888 ) ) ;
#196 = DATE_AND_TIME ( #215, #26 ) ;
#197 = MECHANICAL_CONTEXT ( 'NONE', #94, 'mechanical' ) ;
#198 = CC_DESIGN_PERSON_AND_ORGANIZATION_ASSIGNMENT ( #105, #137, ( #146 ) ) ;
#199 = PERSON_AND_ORGANIZATION_ROLE ( 'creator' ) ;
#200 = AXIS2_PLACEMENT_3D ( 'NONE', #52, #222, #152 ) ;
#201 = APPROVAL ( #102, 'UNSPECIFIED' ) ;
#202 = EDGE_LOOP ( 'NONE', ( #188 ) ) ;
#203 = FACE_OUTER_BOUND ( 'NONE', #168, .T. ) ;
#204 = CIRCLE ( 'NONE', #61, 0.4999999999999970024 ) ;
#205 = CC_DESIGN_PERSON_AND_ORGANIZATION_ASSIGNMENT ( #25, #107, ( #91 ) ) ;
#206 = DIRECTION ( 'NONE',  ( 4.275831445896958607E-31, 1.000000000000000000, 1.224646799147353207E-16 ) ) ;
#207 = FACE_OUTER_BOUND ( 'NONE', #202, .T. ) ;
#208 = DIRECTION ( 'NONE',  ( 3.491481338843133355E-15, -1.224646799147353207E-16, 1.000000000000000000 ) ) ;
#209 = CIRCLE ( 'NONE', #147, 0.2750000000000000777 ) ;
#210 = FACE_BOUND ( 'NONE', #28, .T. ) ;
#211 = ADVANCED_FACE ( 'NONE', ( #191 ), #115, .F. ) ;
#212 = DIRECTION ( 'NONE',  ( -3.491481338843133355E-15, 1.224646799147353207E-16, -1.000000000000000000 ) ) ;
#213 = PERSON_AND_ORGANIZATION ( #181, #179 ) ;
#214 = CC_DESIGN_DATE_AND_TIME_ASSIGNMENT ( #169, #164, ( #146 ) ) ;
#215 = CALENDAR_DATE ( 2021, 8, 10 ) ;
#216 = COORDINATED_UNIVERSAL_TIME_OFFSET ( 1, 0, .AHEAD. ) ;
#217 = COORDINATED_UNIVERSAL_TIME_OFFSET ( 1, 0, .AHEAD. ) ;
#218 = VERTEX_POINT ( 'NONE', #4 ) ;
#219 = PERSON_AND_ORGANIZATION ( #181, #179 ) ;
#220 = EDGE_LOOP ( 'NONE', ( #29 ) ) ;
#221 = ADVANCED_FACE ( 'NONE', ( #116, #207 ), #49, .T. ) ;
#222 = DIRECTION ( 'NONE',  ( 3.491481338843133355E-15, -1.224646799147353207E-16, 1.000000000000000000 ) ) ;
#223 = FACE_OUTER_BOUND ( 'NONE', #130, .T. ) ;
ENDSEC;
END-ISO-10303-21;
