ISO-10303-21;
HEADER;
FILE_DESCRIPTION (( 'STEP AP203' ),
    '1' );
FILE_NAME ('39013.step',
    '2021-09-03T07:22:03',
    ( '' ),
    ( '' ),
    'SwSTEP 2.0',
    'SolidWorks 2019',
    '' );
FILE_SCHEMA (( 'CONFIG_CONTROL_DESIGN' ));
ENDSEC;

DATA;
#1 = CC_DESIGN_PERSON_AND_ORGANIZATION_ASSIGNMENT ( #314, #116, ( #254 ) ) ;
#2 = VECTOR ( 'NONE', #219, 1000.000000000000000 ) ;
#3 = DIRECTION ( 'NONE',  ( 3.491481338843133355E-15, -1.224646799147353207E-16, 1.000000000000000000 ) ) ;
#4 = CC_DESIGN_APPROVAL ( #304, ( #254 ) ) ;
#5 = PERSON_AND_ORGANIZATION ( #31, #217 ) ;
#6 = DIRECTION ( 'NONE',  ( 3.491481338843133355E-15, -1.224646799147353207E-16, 1.000000000000000000 ) ) ;
#7 = ORIENTED_EDGE ( 'NONE', *, *, #91, .T. ) ;
#8 = DIRECTION ( 'NONE',  ( 1.000000000000000000, 0.0000000000000000000, 0.0000000000000000000 ) ) ;
#9 = APPROVAL_DATE_TIME ( #99, #127 ) ;
#10 = CIRCLE ( 'NONE', #114, 2.299999999999996270 ) ;
#11 = ADVANCED_BREP_SHAPE_REPRESENTATION ( '39013', ( #173, #170, #172 ), #17 ) ;
#12 = PRODUCT_RELATED_PRODUCT_CATEGORY ( 'detail', '', ( #136 ) ) ;
#13 = CALENDAR_DATE ( 2021, 3, 9 ) ;
#14 = CARTESIAN_POINT ( 'NONE',  ( 6.284666409917640040E-14, 2.299999999999996270, 18.00000000000000000 ) ) ;
#15 = DIRECTION ( 'NONE',  ( -3.491481338843133355E-15, 1.224646799147353207E-16, -1.000000000000000000 ) ) ;
#16 = UNCERTAINTY_MEASURE_WITH_UNIT (LENGTH_MEASURE( 1.000000000000000082E-05 ), #57, 'distance_accuracy_value', 'NONE');
#17 =( GEOMETRIC_REPRESENTATION_CONTEXT ( 3 ) GLOBAL_UNCERTAINTY_ASSIGNED_CONTEXT ( ( #16 ) ) GLOBAL_UNIT_ASSIGNED_CONTEXT ( ( #57, #326, #133 ) ) REPRESENTATION_CONTEXT ( 'NONE', 'WORKASPACE' ) );
#18 = CARTESIAN_POINT ( 'NONE',  ( 1.320850893051320444E-13, -2.300000000000010481, 57.50000000000000711 ) ) ;
#19 = EDGE_CURVE ( 'NONE', #108, #30, #70, .T. ) ;
#20 = EDGE_LOOP ( 'NONE', ( #330, #310, #336, #257 ) ) ;
#21 = AXIS2_PLACEMENT_3D ( 'NONE', #73, #44, #325 ) ;
#22 = LOCAL_TIME ( 9, 22, 3.000000000000000000, #249 ) ;
#23 = DIRECTION ( 'NONE',  ( 4.275831445896958607E-31, 1.000000000000000000, 1.224646799147353207E-16 ) ) ;
#24 = APPLICATION_PROTOCOL_DEFINITION ( 'international standard', 'config_control_design', 1994, #337 ) ;
#25 = CC_DESIGN_PERSON_AND_ORGANIZATION_ASSIGNMENT ( #5, #139, ( #136 ) ) ;
#26 = DIRECTION ( 'NONE',  ( 0.0000000000000000000, 1.000000000000000000, 0.0000000000000000000 ) ) ;
#27 = DIRECTION ( 'NONE',  ( 1.903218546456021928E-15, 0.8571673007021098911, 0.5150380749100583744 ) ) ;
#28 = VECTOR ( 'NONE', #156, 1000.000000000000000 ) ;
#29 = LINE ( 'NONE', #165, #58 ) ;
#30 = VERTEX_POINT ( 'NONE', #267 ) ;
#31 = PERSON ( 'UNSPECIFIED', 'UNSPECIFIED', 'UNSPECIFIED', ('UNSPECIFIED'), ('UNSPECIFIED'), ('UNSPECIFIED') ) ;
#32 = CARTESIAN_POINT ( 'NONE',  ( 2.816687638038903674E-16, -2.300000000000000711, -2.816687638038922903E-16 ) ) ;
#33 = DIRECTION ( 'NONE',  ( -3.491481338843133355E-15, 1.224646799147353207E-16, -1.000000000000000000 ) ) ;
#34 = SHAPE_DEFINITION_REPRESENTATION ( #210, #11 ) ;
#35 = AXIS2_PLACEMENT_3D ( 'NONE', #184, #335, #284 ) ;
#36 = EDGE_CURVE ( 'NONE', #229, #334, #62, .T. ) ;
#37 = DIRECTION ( 'NONE',  ( -2.382254525458700509E-15, -0.7071067811865519026, -0.7071067811865431318 ) ) ;
#38 = PERSON_AND_ORGANIZATION ( #31, #217 ) ;
#39 = FACE_OUTER_BOUND ( 'NONE', #305, .T. ) ;
#40 = PRODUCT_DEFINITION ( 'UNKNOWN', '', #331, #129 ) ;
#41 = DIRECTION ( 'NONE',  ( -3.491481338843133355E-15, 1.224646799147353207E-16, -1.000000000000000000 ) ) ;
#42 = FACE_OUTER_BOUND ( 'NONE', #227, .T. ) ;
#43 = CALENDAR_DATE ( 2021, 3, 9 ) ;
#44 = DIRECTION ( 'NONE',  ( -3.491481338843133355E-15, 1.224646799147353207E-16, -1.000000000000000000 ) ) ;
#45 = CARTESIAN_POINT ( 'NONE',  ( 4.825155368735103094E-15, -1.692436677799353241E-16, 1.381979423763401549 ) ) ;
#46 = CARTESIAN_POINT ( 'NONE',  ( 1.320850893051321453E-13, -2.300000000000000711, 18.00000000000000000 ) ) ;
#47 = ORIENTED_EDGE ( 'NONE', *, *, #142, .F. ) ;
#48 = ORIENTED_EDGE ( 'NONE', *, *, #91, .F. ) ;
#49 = CARTESIAN_POINT ( 'NONE',  ( 4.825155368735102305E-15, -2.299999999999996270, 1.381979423763401327 ) ) ;
#50 = CARTESIAN_POINT ( 'NONE',  ( 6.284666409917640040E-14, 2.299999999999996270, 18.00000000000000000 ) ) ;
#51 = AXIS2_PLACEMENT_3D ( 'NONE', #291, #245, #150 ) ;
#52 = ADVANCED_FACE ( 'NONE', ( #264 ), #269, .T. ) ;
#53 = CARTESIAN_POINT ( 'NONE',  ( 9.834412325562993059E-31, 2.299999999999997158, 2.816687638038909098E-16 ) ) ;
#54 = EDGE_LOOP ( 'NONE', ( #255, #67, #189, #281 ) ) ;
#55 = CC_DESIGN_PERSON_AND_ORGANIZATION_ASSIGNMENT ( #214, #167, ( #331 ) ) ;
#56 = LINE ( 'NONE', #53, #115 ) ;
#57 =( LENGTH_UNIT ( ) NAMED_UNIT ( * ) SI_UNIT ( .MILLI., .METRE. ) );
#58 = VECTOR ( 'NONE', #27, 1000.000000000000114 ) ;
#59 = CC_DESIGN_APPROVAL ( #127, ( #331 ) ) ;
#60 = CARTESIAN_POINT ( 'NONE',  ( 2.007601769834801995E-13, 2.299999999999996270, 57.50000000000000711 ) ) ;
#61 = PERSON_AND_ORGANIZATION_ROLE ( 'creator' ) ;
#62 = LINE ( 'NONE', #32, #2 ) ;
#63 = DATE_TIME_ROLE ( 'creation_date' ) ;
#64 = DIRECTION ( 'NONE',  ( -3.491481338843133355E-15, 1.224646799147353207E-16, -1.000000000000000000 ) ) ;
#65 = DIRECTION ( 'NONE',  ( -3.491481338843133355E-15, 1.224646799147353207E-16, -1.000000000000000000 ) ) ;
#66 = CC_DESIGN_SECURITY_CLASSIFICATION ( #254, ( #331 ) ) ;
#67 = ORIENTED_EDGE ( 'NONE', *, *, #203, .T. ) ;
#68 = ORIENTED_EDGE ( 'NONE', *, *, #104, .T. ) ;
#69 = DIRECTION ( 'NONE',  ( -3.349443381543024225E-31, -1.000000000000000000, -9.427844978134836224E-17 ) ) ;
#70 = CIRCLE ( 'NONE', #237, 2.299999999999996270 ) ;
#71 = LOCAL_TIME ( 9, 22, 3.000000000000000000, #208 ) ;
#72 = ORIENTED_EDGE ( 'NONE', *, *, #207, .F. ) ;
#73 = CARTESIAN_POINT ( 'NONE',  ( 6.284666409917640040E-14, -2.204364238465235428E-15, 18.00000000000000000 ) ) ;
#74 = AXIS2_PLACEMENT_3D ( 'NONE', #202, #273, #23 ) ;
#75 = VECTOR ( 'NONE', #37, 1000.000000000000000 ) ;
#76 = ORIENTED_EDGE ( 'NONE', *, *, #241, .F. ) ;
#77 = DIRECTION ( 'NONE',  ( -3.491481338843133355E-15, 1.224646799147353207E-16, -1.000000000000000000 ) ) ;
#78 = ORIENTED_EDGE ( 'NONE', *, *, #328, .F. ) ;
#79 = ORIENTED_EDGE ( 'NONE', *, *, #313, .F. ) ;
#80 = DIRECTION ( 'NONE',  ( -3.491481338843133355E-15, 1.224646799147353207E-16, -1.000000000000000000 ) ) ;
#81 = ADVANCED_FACE ( 'NONE', ( #39 ), #290, .T. ) ;
#82 = AXIS2_PLACEMENT_3D ( 'NONE', #322, #324, #251 ) ;
#83 = LOCAL_TIME ( 9, 22, 3.000000000000000000, #285 ) ;
#84 = CARTESIAN_POINT ( 'NONE',  ( 0.0000000000000000000, 0.0000000000000000000, 0.0000000000000000000 ) ) ;
#85 = ORIENTED_EDGE ( 'NONE', *, *, #288, .T. ) ;
#86 = APPLICATION_PROTOCOL_DEFINITION ( 'international standard', 'config_control_design', 1994, #270 ) ;
#87 = APPROVAL_STATUS ( 'not_yet_approved' ) ;
#88 = DIRECTION ( 'NONE',  ( 0.0000000000000000000, 1.000000000000000000, 0.0000000000000000000 ) ) ;
#89 = DIRECTION ( 'NONE',  ( 0.0000000000000000000, 0.0000000000000000000, 1.000000000000000000 ) ) ;
#90 = ORIENTED_EDGE ( 'NONE', *, *, #164, .F. ) ;
#91 = EDGE_CURVE ( 'NONE', #96, #334, #261, .T. ) ;
#92 = CLOSED_SHELL ( 'NONE', ( #81, #166, #146, #323, #250 ) ) ;
#93 = CARTESIAN_POINT ( 'NONE',  ( 2.027263540767482629E-13, -1.800000000000010703, 58.00000000000000000 ) ) ;
#94 = APPROVAL_PERSON_ORGANIZATION ( #218, #304, #247 ) ;
#95 = CARTESIAN_POINT ( 'NONE',  ( 4.825155368735103094E-15, -1.692436677799353241E-16, 1.381979423763401549 ) ) ;
#96 = VERTEX_POINT ( 'NONE', #50 ) ;
#97 = CYLINDRICAL_SURFACE ( 'NONE', #181, 2.299999999999997158 ) ;
#98 = ADVANCED_FACE ( 'NONE', ( #262 ), #128, .F. ) ;
#99 = DATE_AND_TIME ( #43, #225 ) ;
#100 = CARTESIAN_POINT ( 'NONE',  ( 0.0000000000000000000, 0.0000000000000000000, 0.0000000000000000000 ) ) ;
#101 = ORIENTED_EDGE ( 'NONE', *, *, #117, .T. ) ;
#102 = CIRCLE ( 'NONE', #140, 2.300000000000003375 ) ;
#103 = CARTESIAN_POINT ( 'NONE',  ( 6.284666409917640040E-14, -2.204364238465235428E-15, 18.00000000000000000 ) ) ;
#104 = EDGE_CURVE ( 'NONE', #30, #108, #10, .T. ) ;
#105 = ORIENTED_EDGE ( 'NONE', *, *, #241, .T. ) ;
#106 = EDGE_LOOP ( 'NONE', ( #311, #101, #176 ) ) ;
#107 = EDGE_LOOP ( 'NONE', ( #266, #201 ) ) ;
#108 = VERTEX_POINT ( 'NONE', #297 ) ;
#109 = CIRCLE ( 'NONE', #200, 2.300000000000003375 ) ;
#110 = AXIS2_PLACEMENT_3D ( 'NONE', #158, #131, #213 ) ;
#111 = CARTESIAN_POINT ( 'NONE',  ( 2.007601769834801995E-13, -7.041719095097282063E-15, 57.50000000000000711 ) ) ;
#112 = ADVANCED_FACE ( 'NONE', ( #179 ), #256, .T. ) ;
#113 = EDGE_CURVE ( 'NONE', #145, #229, #109, .T. ) ;
#114 = AXIS2_PLACEMENT_3D ( 'NONE', #45, #15, #258 ) ;
#115 = VECTOR ( 'NONE', #77, 1000.000000000000000 ) ;
#116 = PERSON_AND_ORGANIZATION_ROLE ( 'classification_officer' ) ;
#117 = EDGE_CURVE ( 'NONE', #215, #108, #29, .T. ) ;
#118 = DIRECTION ( 'NONE',  ( -3.491481338843133355E-15, 1.224646799147353207E-16, -1.000000000000000000 ) ) ;
#119 = ORIENTED_EDGE ( 'NONE', *, *, #299, .F. ) ;
#120 = APPROVAL_DATE_TIME ( #289, #304 ) ;
#121 = CARTESIAN_POINT ( 'NONE',  ( 2.816687638038899730E-16, -2.299999999999997158, -2.816687638038918959E-16 ) ) ;
#122 = EDGE_CURVE ( 'NONE', #216, #145, #137, .T. ) ;
#123 = DIRECTION ( 'NONE',  ( -3.491481338843133355E-15, 1.224646799147353207E-16, -1.000000000000000000 ) ) ;
#124 = CONICAL_SURFACE ( 'NONE', #196, 2.299999999999996270, 1.029744258676649871 ) ;
#125 = CONICAL_SURFACE ( 'NONE', #141, 1.800000000000003597, 0.7853981633974547183 ) ;
#126 = EDGE_LOOP ( 'NONE', ( #47, #119 ) ) ;
#127 = APPROVAL ( #316, 'UNSPECIFIED' ) ;
#128 = PLANE ( 'NONE',  #74 ) ;
#129 = DESIGN_CONTEXT ( 'detailed design', #270, 'design' ) ;
#130 = ORIENTED_EDGE ( 'NONE', *, *, #113, .T. ) ;
#131 = DIRECTION ( 'NONE',  ( 3.491481338843133355E-15, -1.224646799147353207E-16, 1.000000000000000000 ) ) ;
#132 = LINE ( 'NONE', #49, #28 ) ;
#133 =( NAMED_UNIT ( * ) SI_UNIT ( $, .STERADIAN. ) SOLID_ANGLE_UNIT ( ) );
#134 = AXIS2_PLACEMENT_3D ( 'NONE', #242, #41, #220 ) ;
#135 = DIRECTION ( 'NONE',  ( 0.0000000000000000000, 1.000000000000000000, 0.0000000000000000000 ) ) ;
#136 = PRODUCT ( '39013', '39013', '', ( #185 ) ) ;
#137 = LINE ( 'NONE', #301, #252 ) ;
#138 = APPROVAL_DATE_TIME ( #282, #244 ) ;
#139 = PERSON_AND_ORGANIZATION_ROLE ( 'design_owner' ) ;
#140 = AXIS2_PLACEMENT_3D ( 'NONE', #111, #65, #88 ) ;
#141 = AXIS2_PLACEMENT_3D ( 'NONE', #260, #235, #135 ) ;
#142 = EDGE_CURVE ( 'NONE', #216, #163, #243, .T. ) ;
#143 = FACE_OUTER_BOUND ( 'NONE', #106, .T. ) ;
#144 = COORDINATED_UNIVERSAL_TIME_OFFSET ( 1, 0, .AHEAD. ) ;
#145 = VERTEX_POINT ( 'NONE', #60 ) ;
#146 = ADVANCED_FACE ( 'NONE', ( #162 ), #124, .T. ) ;
#147 = DIRECTION ( 'NONE',  ( 4.275831445896958607E-31, 1.000000000000000000, 1.224646799147353207E-16 ) ) ;
#148 = SECURITY_CLASSIFICATION_LEVEL ( 'unclassified' ) ;
#149 = PERSON_AND_ORGANIZATION_ROLE ( 'design_supplier' ) ;
#150 = DIRECTION ( 'NONE',  ( 0.0000000000000000000, 1.000000000000000000, 0.0000000000000000000 ) ) ;
#151 = PERSON_AND_ORGANIZATION ( #31, #217 ) ;
#152 = DIRECTION ( 'NONE',  ( 4.275831445896958607E-31, 1.000000000000000000, 1.224646799147353207E-16 ) ) ;
#153 = CC_DESIGN_DATE_AND_TIME_ASSIGNMENT ( #190, #221, ( #254 ) ) ;
#154 = APPROVAL_ROLE ( '' ) ;
#155 = CIRCLE ( 'NONE', #309, 2.299999999999998490 ) ;
#156 = DIRECTION ( 'NONE',  ( 1.798245827342159528E-15, -0.8571673007021100021, 0.5150380749100580413 ) ) ;
#157 = PLANE ( 'NONE',  #110 ) ;
#158 = CARTESIAN_POINT ( 'NONE',  ( 6.284666409917640040E-14, 1.724723750061132144E-32, 18.00000000000000000 ) ) ;
#159 = CARTESIAN_POINT ( 'NONE',  ( 2.025059176529017346E-13, 1.799999999999996492, 58.00000000000000000 ) ) ;
#160 = DIRECTION ( 'NONE',  ( -3.491481338843133355E-15, 1.224646799147353207E-16, -1.000000000000000000 ) ) ;
#161 = PERSON_AND_ORGANIZATION ( #31, #217 ) ;
#162 = FACE_OUTER_BOUND ( 'NONE', #312, .T. ) ;
#163 = VERTEX_POINT ( 'NONE', #234 ) ;
#164 = EDGE_CURVE ( 'NONE', #229, #145, #102, .T. ) ;
#165 = CARTESIAN_POINT ( 'NONE',  ( 5.106824132538994250E-15, 2.299999999999996270, 1.381979423763401771 ) ) ;
#166 = ADVANCED_FACE ( 'NONE', ( #143 ), #319, .T. ) ;
#167 = PERSON_AND_ORGANIZATION_ROLE ( 'creator' ) ;
#168 = ORIENTED_EDGE ( 'NONE', *, *, #36, .F. ) ;
#169 = AXIS2_PLACEMENT_3D ( 'NONE', #84, #228, #182 ) ;
#170 = MANIFOLD_SOLID_BREP ( 'Corps-Déplacer/Copier1[2]', #92 ) ;
#171 = AXIS2_PLACEMENT_3D ( 'NONE', #100, #294, #152 ) ;
#172 = AXIS2_PLACEMENT_3D ( 'NONE', #211, #89, #8 ) ;
#173 = MANIFOLD_SOLID_BREP ( 'Corps-Déplacer/Copier1[1]', #276 ) ;
#174 = CARTESIAN_POINT ( 'NONE',  ( 0.0000000000000000000, 0.0000000000000000000, 0.0000000000000000000 ) ) ;
#175 = ADVANCED_FACE ( 'NONE', ( #42 ), #246, .T. ) ;
#176 = ORIENTED_EDGE ( 'NONE', *, *, #19, .T. ) ;
#177 = DIRECTION ( 'NONE',  ( 3.491481338843133355E-15, -1.224646799147353207E-16, 1.000000000000000000 ) ) ;
#178 = DIRECTION ( 'NONE',  ( -4.275831445896958607E-31, -1.000000000000000000, -1.224646799147353207E-16 ) ) ;
#179 = FACE_OUTER_BOUND ( 'NONE', #300, .T. ) ;
#180 = AXIS2_PLACEMENT_3D ( 'NONE', #239, #6, #69 ) ;
#181 = AXIS2_PLACEMENT_3D ( 'NONE', #198, #33, #147 ) ;
#182 = DIRECTION ( 'NONE',  ( 4.275831445896958607E-31, 1.000000000000000000, 1.224646799147353207E-16 ) ) ;
#183 = ORIENTED_EDGE ( 'NONE', *, *, #299, .T. ) ;
#184 = CARTESIAN_POINT ( 'NONE',  ( 2.025059176529017346E-13, -7.102951435054648059E-15, 58.00000000000000000 ) ) ;
#185 = MECHANICAL_CONTEXT ( 'NONE', #337, 'mechanical' ) ;
#186 = CC_DESIGN_APPROVAL ( #244, ( #40 ) ) ;
#187 = DATE_AND_TIME ( #303, #71 ) ;
#188 = CC_DESIGN_DATE_AND_TIME_ASSIGNMENT ( #187, #63, ( #40 ) ) ;
#189 = ORIENTED_EDGE ( 'NONE', *, *, #207, .T. ) ;
#190 = DATE_AND_TIME ( #293, #22 ) ;
#191 = DIRECTION ( 'NONE',  ( -3.491481338843133355E-15, 1.224646799147353207E-16, -1.000000000000000000 ) ) ;
#192 = ORIENTED_EDGE ( 'NONE', *, *, #19, .F. ) ;
#193 = FACE_OUTER_BOUND ( 'NONE', #54, .T. ) ;
#194 = COORDINATED_UNIVERSAL_TIME_OFFSET ( 1, 0, .AHEAD. ) ;
#195 = ORIENTED_EDGE ( 'NONE', *, *, #164, .T. ) ;
#196 = AXIS2_PLACEMENT_3D ( 'NONE', #236, #3, #263 ) ;
#197 = CC_DESIGN_PERSON_AND_ORGANIZATION_ASSIGNMENT ( #240, #61, ( #40 ) ) ;
#198 = CARTESIAN_POINT ( 'NONE',  ( 0.0000000000000000000, 0.0000000000000000000, 0.0000000000000000000 ) ) ;
#199 = ADVANCED_FACE ( 'NONE', ( #296 ), #224, .F. ) ;
#200 = AXIS2_PLACEMENT_3D ( 'NONE', #279, #160, #333 ) ;
#201 = ORIENTED_EDGE ( 'NONE', *, *, #203, .F. ) ;
#202 = CARTESIAN_POINT ( 'NONE',  ( 2.025059176529017346E-13, 1.349783804395663636E-32, 58.00000000000000000 ) ) ;
#203 = EDGE_CURVE ( 'NONE', #259, #232, #155, .T. ) ;
#204 = FACE_OUTER_BOUND ( 'NONE', #107, .T. ) ;
#205 = ORIENTED_EDGE ( 'NONE', *, *, #122, .T. ) ;
#206 = APPROVAL_ROLE ( '' ) ;
#207 = EDGE_CURVE ( 'NONE', #232, #108, #56, .T. ) ;
#208 = COORDINATED_UNIVERSAL_TIME_OFFSET ( 1, 0, .AHEAD. ) ;
#209 = CIRCLE ( 'NONE', #134, 2.299999999999998490 ) ;
#210 = PRODUCT_DEFINITION_SHAPE ( 'NONE', 'NONE',  #40 ) ;
#211 = CARTESIAN_POINT ( 'NONE',  ( 0.0000000000000000000, 0.0000000000000000000, 0.0000000000000000000 ) ) ;
#212 = EDGE_LOOP ( 'NONE', ( #78, #183, #205, #90 ) ) ;
#213 = DIRECTION ( 'NONE',  ( -4.275831445896958607E-31, -1.000000000000000000, -1.224646799147353207E-16 ) ) ;
#214 = PERSON_AND_ORGANIZATION ( #31, #217 ) ;
#215 = VERTEX_POINT ( 'NONE', #174 ) ;
#216 = VERTEX_POINT ( 'NONE', #159 ) ;
#217 = ORGANIZATION ( 'UNSPECIFIED', 'UNSPECIFIED', '' ) ;
#218 = PERSON_AND_ORGANIZATION ( #31, #217 ) ;
#219 = DIRECTION ( 'NONE',  ( -3.491481338843133355E-15, 1.224646799147353207E-16, -1.000000000000000000 ) ) ;
#220 = DIRECTION ( 'NONE',  ( 0.0000000000000000000, 1.000000000000000000, 0.0000000000000000000 ) ) ;
#221 = DATE_TIME_ROLE ( 'classification_date' ) ;
#222 = AXIS2_PLACEMENT_3D ( 'NONE', #253, #177, #178 ) ;
#223 = LINE ( 'NONE', #93, #75 ) ;
#224 = PLANE ( 'NONE',  #222 ) ;
#225 = LOCAL_TIME ( 9, 22, 3.000000000000000000, #144 ) ;
#226 = EDGE_CURVE ( 'NONE', #215, #30, #132, .T. ) ;
#227 = EDGE_LOOP ( 'NONE', ( #168, #195, #105, #79 ) ) ;
#228 = DIRECTION ( 'NONE',  ( -3.491481338843133355E-15, 1.224646799147353207E-16, -1.000000000000000000 ) ) ;
#229 = VERTEX_POINT ( 'NONE', #18 ) ;
#230 = LINE ( 'NONE', #332, #298 ) ;
#231 = CIRCLE ( 'NONE', #51, 1.800000000000003597 ) ;
#232 = VERTEX_POINT ( 'NONE', #14 ) ;
#233 = DIRECTION ( 'NONE',  ( -2.468850131082249961E-15, 0.7071067811865521247, -0.7071067811865430208 ) ) ;
#234 = CARTESIAN_POINT ( 'NONE',  ( 2.018840999120161728E-13, -1.800000000000010703, 58.00000000000000000 ) ) ;
#235 = DIRECTION ( 'NONE',  ( -3.491481338843133355E-15, 1.224646799147353207E-16, -1.000000000000000000 ) ) ;
#236 = CARTESIAN_POINT ( 'NONE',  ( 4.825155368735103094E-15, -1.692436677799353241E-16, 1.381979423763401549 ) ) ;
#237 = AXIS2_PLACEMENT_3D ( 'NONE', #95, #191, #287 ) ;
#238 = CARTESIAN_POINT ( 'NONE',  ( 3.411757849775961095E-14, -2.300000000000000711, 18.00000000000000000 ) ) ;
#239 = CARTESIAN_POINT ( 'NONE',  ( 4.825155368735103094E-15, -1.692436677799353241E-16, 1.381979423763401549 ) ) ;
#240 = PERSON_AND_ORGANIZATION ( #31, #217 ) ;
#241 = EDGE_CURVE ( 'NONE', #145, #96, #230, .T. ) ;
#242 = CARTESIAN_POINT ( 'NONE',  ( 6.284666409917640040E-14, -2.204364238465235428E-15, 18.00000000000000000 ) ) ;
#243 = CIRCLE ( 'NONE', #35, 1.800000000000003597 ) ;
#244 = APPROVAL ( #87, 'UNSPECIFIED' ) ;
#245 = DIRECTION ( 'NONE',  ( -3.491481338843133355E-15, 1.224646799147353207E-16, -1.000000000000000000 ) ) ;
#246 = CYLINDRICAL_SURFACE ( 'NONE', #82, 2.300000000000000711 ) ;
#247 = APPROVAL_ROLE ( '' ) ;
#248 = CARTESIAN_POINT ( 'NONE',  ( 6.284666409917640040E-14, -2.204364238465235428E-15, 18.00000000000000000 ) ) ;
#249 = COORDINATED_UNIVERSAL_TIME_OFFSET ( 1, 0, .AHEAD. ) ;
#250 = ADVANCED_FACE ( 'NONE', ( #204 ), #157, .T. ) ;
#251 = DIRECTION ( 'NONE',  ( 4.275831445896958607E-31, 1.000000000000000000, 1.224646799147353207E-16 ) ) ;
#252 = VECTOR ( 'NONE', #233, 999.9999999999998863 ) ;
#253 = CARTESIAN_POINT ( 'NONE',  ( 6.284666409917640040E-14, 1.724723750061132144E-32, 18.00000000000000000 ) ) ;
#254 = SECURITY_CLASSIFICATION ( '', '', #148 ) ;
#255 = ORIENTED_EDGE ( 'NONE', *, *, #288, .F. ) ;
#256 = CYLINDRICAL_SURFACE ( 'NONE', #169, 2.300000000000000711 ) ;
#257 = ORIENTED_EDGE ( 'NONE', *, *, #122, .F. ) ;
#258 = DIRECTION ( 'NONE',  ( 3.349443381543024225E-31, 1.000000000000000000, 9.427844978134836224E-17 ) ) ;
#259 = VERTEX_POINT ( 'NONE', #238 ) ;
#260 = CARTESIAN_POINT ( 'NONE',  ( 2.025059176529017346E-13, -7.102951435054648059E-15, 58.00000000000000000 ) ) ;
#261 = CIRCLE ( 'NONE', #21, 2.299999999999998490 ) ;
#262 = FACE_OUTER_BOUND ( 'NONE', #126, .T. ) ;
#263 = DIRECTION ( 'NONE',  ( -3.349443381543024225E-31, -1.000000000000000000, -9.427844978134836224E-17 ) ) ;
#264 = FACE_OUTER_BOUND ( 'NONE', #212, .T. ) ;
#265 = CC_DESIGN_PERSON_AND_ORGANIZATION_ASSIGNMENT ( #151, #149, ( #331 ) ) ;
#266 = ORIENTED_EDGE ( 'NONE', *, *, #295, .F. ) ;
#267 = CARTESIAN_POINT ( 'NONE',  ( 4.825155368735102305E-15, -2.299999999999996270, 1.381979423763401327 ) ) ;
#268 = ADVANCED_FACE ( 'NONE', ( #307 ), #125, .T. ) ;
#269 = CONICAL_SURFACE ( 'NONE', #308, 1.800000000000003597, 0.7853981633974547183 ) ;
#270 = APPLICATION_CONTEXT ( 'configuration controlled 3d designs of mechanical parts and assemblies' ) ;
#271 = DIRECTION ( 'NONE',  ( -3.491481338843133355E-15, 1.224646799147353207E-16, -1.000000000000000000 ) ) ;
#272 = APPROVAL_PERSON_ORGANIZATION ( #38, #127, #154 ) ;
#273 = DIRECTION ( 'NONE',  ( -3.491481338843133355E-15, 1.224646799147353207E-16, -1.000000000000000000 ) ) ;
#274 = ORIENTED_EDGE ( 'NONE', *, *, #36, .T. ) ;
#275 = EDGE_LOOP ( 'NONE', ( #7, #306 ) ) ;
#276 = CLOSED_SHELL ( 'NONE', ( #268, #112, #199, #175, #52, #98 ) ) ;
#277 = DIRECTION ( 'NONE',  ( 0.0000000000000000000, 1.000000000000000000, 0.0000000000000000000 ) ) ;
#278 = ORIENTED_EDGE ( 'NONE', *, *, #226, .T. ) ;
#279 = CARTESIAN_POINT ( 'NONE',  ( 2.007601769834801995E-13, -7.041719095097282063E-15, 57.50000000000000711 ) ) ;
#280 = CALENDAR_DATE ( 2021, 3, 9 ) ;
#281 = ORIENTED_EDGE ( 'NONE', *, *, #104, .F. ) ;
#282 = DATE_AND_TIME ( #280, #83 ) ;
#283 = CARTESIAN_POINT ( 'NONE',  ( 2.025059176529017346E-13, -7.102951435054648059E-15, 58.00000000000000000 ) ) ;
#284 = DIRECTION ( 'NONE',  ( 0.0000000000000000000, 1.000000000000000000, 0.0000000000000000000 ) ) ;
#285 = COORDINATED_UNIVERSAL_TIME_OFFSET ( 1, 0, .AHEAD. ) ;
#286 = VECTOR ( 'NONE', #271, 1000.000000000000000 ) ;
#287 = DIRECTION ( 'NONE',  ( 3.349443381543024225E-31, 1.000000000000000000, 9.427844978134836224E-17 ) ) ;
#288 = EDGE_CURVE ( 'NONE', #259, #30, #315, .T. ) ;
#289 = DATE_AND_TIME ( #13, #292 ) ;
#290 = CYLINDRICAL_SURFACE ( 'NONE', #171, 2.299999999999997158 ) ;
#291 = CARTESIAN_POINT ( 'NONE',  ( 2.025059176529017346E-13, -7.102951435054648059E-15, 58.00000000000000000 ) ) ;
#292 = LOCAL_TIME ( 9, 22, 3.000000000000000000, #194 ) ;
#293 = CALENDAR_DATE ( 2021, 3, 9 ) ;
#294 = DIRECTION ( 'NONE',  ( -3.491481338843133355E-15, 1.224646799147353207E-16, -1.000000000000000000 ) ) ;
#295 = EDGE_CURVE ( 'NONE', #232, #259, #209, .T. ) ;
#296 = FACE_OUTER_BOUND ( 'NONE', #275, .T. ) ;
#297 = CARTESIAN_POINT ( 'NONE',  ( 5.106824132538994250E-15, 2.299999999999996270, 1.381979423763401771 ) ) ;
#298 = VECTOR ( 'NONE', #123, 1000.000000000000000 ) ;
#299 = EDGE_CURVE ( 'NONE', #163, #216, #231, .T. ) ;
#300 = EDGE_LOOP ( 'NONE', ( #130, #274, #48, #76 ) ) ;
#301 = CARTESIAN_POINT ( 'NONE',  ( 2.025059176529017346E-13, 1.799999999999996492, 58.00000000000000000 ) ) ;
#302 = CIRCLE ( 'NONE', #320, 2.299999999999998490 ) ;
#303 = CALENDAR_DATE ( 2021, 3, 9 ) ;
#304 = APPROVAL ( #318, 'UNSPECIFIED' ) ;
#305 = EDGE_LOOP ( 'NONE', ( #317, #85, #192, #72 ) ) ;
#306 = ORIENTED_EDGE ( 'NONE', *, *, #313, .T. ) ;
#307 = FACE_OUTER_BOUND ( 'NONE', #20, .T. ) ;
#308 = AXIS2_PLACEMENT_3D ( 'NONE', #283, #64, #26 ) ;
#309 = AXIS2_PLACEMENT_3D ( 'NONE', #103, #80, #277 ) ;
#310 = ORIENTED_EDGE ( 'NONE', *, *, #328, .T. ) ;
#311 = ORIENTED_EDGE ( 'NONE', *, *, #226, .F. ) ;
#312 = EDGE_LOOP ( 'NONE', ( #329, #278, #68 ) ) ;
#313 = EDGE_CURVE ( 'NONE', #334, #96, #302, .T. ) ;
#314 = PERSON_AND_ORGANIZATION ( #31, #217 ) ;
#315 = LINE ( 'NONE', #121, #286 ) ;
#316 = APPROVAL_STATUS ( 'not_yet_approved' ) ;
#317 = ORIENTED_EDGE ( 'NONE', *, *, #295, .T. ) ;
#318 = APPROVAL_STATUS ( 'not_yet_approved' ) ;
#319 = CONICAL_SURFACE ( 'NONE', #180, 2.299999999999996270, 1.029744258676649871 ) ;
#320 = AXIS2_PLACEMENT_3D ( 'NONE', #248, #118, #321 ) ;
#321 = DIRECTION ( 'NONE',  ( 0.0000000000000000000, 1.000000000000000000, 0.0000000000000000000 ) ) ;
#322 = CARTESIAN_POINT ( 'NONE',  ( 0.0000000000000000000, 0.0000000000000000000, 0.0000000000000000000 ) ) ;
#323 = ADVANCED_FACE ( 'NONE', ( #193 ), #97, .T. ) ;
#324 = DIRECTION ( 'NONE',  ( -3.491481338843133355E-15, 1.224646799147353207E-16, -1.000000000000000000 ) ) ;
#325 = DIRECTION ( 'NONE',  ( 0.0000000000000000000, 1.000000000000000000, 0.0000000000000000000 ) ) ;
#326 =( NAMED_UNIT ( * ) PLANE_ANGLE_UNIT ( ) SI_UNIT ( $, .RADIAN. ) );
#327 = APPROVAL_PERSON_ORGANIZATION ( #161, #244, #206 ) ;
#328 = EDGE_CURVE ( 'NONE', #163, #229, #223, .T. ) ;
#329 = ORIENTED_EDGE ( 'NONE', *, *, #117, .F. ) ;
#330 = ORIENTED_EDGE ( 'NONE', *, *, #142, .T. ) ;
#331 = PRODUCT_DEFINITION_FORMATION_WITH_SPECIFIED_SOURCE ( 'ANY', '', #136, .NOT_KNOWN. ) ;
#332 = CARTESIAN_POINT ( 'NONE',  ( 9.834412325563008824E-31, 2.300000000000000711, 2.816687638038913042E-16 ) ) ;
#333 = DIRECTION ( 'NONE',  ( 0.0000000000000000000, 1.000000000000000000, 0.0000000000000000000 ) ) ;
#334 = VERTEX_POINT ( 'NONE', #46 ) ;
#335 = DIRECTION ( 'NONE',  ( -3.491481338843133355E-15, 1.224646799147353207E-16, -1.000000000000000000 ) ) ;
#336 = ORIENTED_EDGE ( 'NONE', *, *, #113, .F. ) ;
#337 = APPLICATION_CONTEXT ( 'configuration controlled 3d designs of mechanical parts and assemblies' ) ;
ENDSEC;
END-ISO-10303-21;
