ISO-10303-21;
HEADER;
FILE_DESCRIPTION (( 'STEP AP203' ),
    '1' );
FILE_NAME ('38962.step',
    '2021-10-07T13:47:56',
    ( '' ),
    ( '' ),
    'SwSTEP 2.0',
    'SolidWorks 2019',
    '' );
FILE_SCHEMA (( 'CONFIG_CONTROL_DESIGN' ));
ENDSEC;

DATA;
#1 = DATE_AND_TIME ( #153, #53 ) ;
#2 = ORIENTED_EDGE ( 'NONE', *, *, #100, .F. ) ;
#3 = CONICAL_SURFACE ( 'NONE', #52, 0.9999999999999970024, 0.5235987755982913772 ) ;
#4 = PERSON ( 'UNSPECIFIED', 'UNSPECIFIED', 'UNSPECIFIED', ('UNSPECIFIED'), ('UNSPECIFIED'), ('UNSPECIFIED') ) ;
#5 = EDGE_LOOP ( 'NONE', ( #61 ) ) ;
#6 = CARTESIAN_POINT ( 'NONE',  ( 0.0000000000000000000, 0.0000000000000000000, 0.0000000000000000000 ) ) ;
#7 = CARTESIAN_POINT ( 'NONE',  ( 4.189777606611760026E-14, 5.699087174114997192E-33, 12.00000000000000000 ) ) ;
#8 = CARTESIAN_POINT ( 'NONE',  ( 4.334915760353081496E-14, -1.520483770435620745E-15, 12.41569219381654143 ) ) ;
#9 = PRODUCT_DEFINITION ( 'UNKNOWN', '', #161, #150 ) ;
#10 = PRODUCT ( '38962', '38962', '', ( #188 ) ) ;
#11 = DIRECTION ( 'NONE',  ( -4.275831445896958607E-31, -1.000000000000000000, -1.224646799147353207E-16 ) ) ;
#12 = AXIS2_PLACEMENT_3D ( 'NONE', #95, #80, #11 ) ;
#13 = CC_DESIGN_DATE_AND_TIME_ASSIGNMENT ( #51, #222, ( #9 ) ) ;
#14 = CALENDAR_DATE ( 2021, 7, 10 ) ;
#15 = CIRCLE ( 'NONE', #172, 0.9999999999999970024 ) ;
#16 = CALENDAR_DATE ( 2021, 7, 10 ) ;
#17 = CARTESIAN_POINT ( 'NONE',  ( 1.319779946082704535E-13, 0.9999999999999961142, 37.79999999999999716 ) ) ;
#18 = CC_DESIGN_PERSON_AND_ORGANIZATION_ASSIGNMENT ( #126, #38, ( #10 ) ) ;
#19 = CARTESIAN_POINT ( 'NONE',  ( 4.334915760353081496E-14, -1.520483770435620745E-15, 12.41569219381654143 ) ) ;
#20 = FACE_OUTER_BOUND ( 'NONE', #117, .T. ) ;
#21 = CLOSED_SHELL ( 'NONE', ( #210, #68, #24, #186, #28 ) ) ;
#22 = FACE_OUTER_BOUND ( 'NONE', #195, .T. ) ;
#23 = CC_DESIGN_SECURITY_CLASSIFICATION ( #154, ( #161 ) ) ;
#24 = ADVANCED_FACE ( 'NONE', ( #22, #20 ), #132, .T. ) ;
#25 = EDGE_LOOP ( 'NONE', ( #92 ) ) ;
#26 = DIRECTION ( 'NONE',  ( -3.491481338843133355E-15, 1.224646799147353207E-16, -1.000000000000000000 ) ) ;
#27 = PERSON_AND_ORGANIZATION ( #4, #62 ) ;
#28 = ADVANCED_FACE ( 'NONE', ( #56 ), #209, .F. ) ;
#29 = VERTEX_POINT ( 'NONE', #17 ) ;
#30 = AXIS2_PLACEMENT_3D ( 'NONE', #93, #142, #64 ) ;
#31 = DIRECTION ( 'NONE',  ( -3.491481338843133355E-15, 1.224646799147353207E-16, -1.000000000000000000 ) ) ;
#32 = FACE_OUTER_BOUND ( 'NONE', #192, .T. ) ;
#33 = CIRCLE ( 'NONE', #215, 1.000000000000000666 ) ;
#34 = APPROVAL_PERSON_ORGANIZATION ( #128, #121, #171 ) ;
#35 =( NAMED_UNIT ( * ) PLANE_ANGLE_UNIT ( ) SI_UNIT ( $, .RADIAN. ) );
#36 = CARTESIAN_POINT ( 'NONE',  ( 1.326762908760390423E-13, 0.7999999999999963807, 38.00000000000000000 ) ) ;
#37 = CARTESIAN_POINT ( 'NONE',  ( 4.334915760353081496E-14, 0.9999999999999954481, 12.41569219381654143 ) ) ;
#38 = PERSON_AND_ORGANIZATION_ROLE ( 'design_owner' ) ;
#39 = APPROVAL_STATUS ( 'not_yet_approved' ) ;
#40 = ORIENTED_EDGE ( 'NONE', *, *, #130, .T. ) ;
#41 = ORIENTED_EDGE ( 'NONE', *, *, #66, .T. ) ;
#42 = EDGE_LOOP ( 'NONE', ( #159 ) ) ;
#43 = DIRECTION ( 'NONE',  ( -3.491481338843133355E-15, 1.224646799147353207E-16, -1.000000000000000000 ) ) ;
#44 = CARTESIAN_POINT ( 'NONE',  ( 4.189777606611760026E-14, 0.7599999999999933475, 12.00000000000000000 ) ) ;
#45 = DIRECTION ( 'NONE',  ( 0.0000000000000000000, 1.000000000000000000, 0.0000000000000000000 ) ) ;
#46 = CIRCLE ( 'NONE', #207, 0.8000000000000010436 ) ;
#47 = DIRECTION ( 'NONE',  ( 3.491481338843133355E-15, -1.224646799147353207E-16, 1.000000000000000000 ) ) ;
#48 = AXIS2_PLACEMENT_3D ( 'NONE', #213, #87, #60 ) ;
#49 = VERTEX_POINT ( 'NONE', #36 ) ;
#50 = EDGE_CURVE ( 'NONE', #182, #182, #96, .T. ) ;
#51 = DATE_AND_TIME ( #14, #81 ) ;
#52 = AXIS2_PLACEMENT_3D ( 'NONE', #19, #156, #75 ) ;
#53 = LOCAL_TIME ( 15, 47, 56.00000000000000000, #190 ) ;
#54 = CC_DESIGN_PERSON_AND_ORGANIZATION_ASSIGNMENT ( #146, #113, ( #161 ) ) ;
#55 = APPROVAL_DATE_TIME ( #97, #223 ) ;
#56 = FACE_OUTER_BOUND ( 'NONE', #25, .T. ) ;
#57 = AXIS2_PLACEMENT_3D ( 'NONE', #120, #31, #203 ) ;
#58 = ORIENTED_EDGE ( 'NONE', *, *, #50, .T. ) ;
#59 = CALENDAR_DATE ( 2021, 7, 10 ) ;
#60 = DIRECTION ( 'NONE',  ( 0.0000000000000000000, 1.000000000000000000, 0.0000000000000000000 ) ) ;
#61 = ORIENTED_EDGE ( 'NONE', *, *, #100, .T. ) ;
#62 = ORGANIZATION ( 'UNSPECIFIED', 'UNSPECIFIED', '' ) ;
#63 = DIRECTION ( 'NONE',  ( 0.0000000000000000000, 1.000000000000000000, 0.0000000000000000000 ) ) ;
#64 = DIRECTION ( 'NONE',  ( 4.275831445896957731E-31, 1.000000000000000000, 1.224646799147353207E-16 ) ) ;
#65 = DIRECTION ( 'NONE',  ( 0.0000000000000000000, 1.000000000000000000, 0.0000000000000000000 ) ) ;
#66 = EDGE_CURVE ( 'NONE', #29, #29, #33, .T. ) ;
#67 = APPLICATION_CONTEXT ( 'configuration controlled 3d designs of mechanical parts and assemblies' ) ;
#68 = ADVANCED_FACE ( 'NONE', ( #89, #118 ), #3, .T. ) ;
#69 = LOCAL_TIME ( 15, 47, 56.00000000000000000, #90 ) ;
#70 = CARTESIAN_POINT ( 'NONE',  ( 4.189777606611760026E-14, 0.7599999999999933475, 12.00000000000000000 ) ) ;
#71 =( NAMED_UNIT ( * ) SI_UNIT ( $, .STERADIAN. ) SOLID_ANGLE_UNIT ( ) );
#72 = PERSON_AND_ORGANIZATION ( #4, #62 ) ;
#73 = AXIS2_PLACEMENT_3D ( 'NONE', #85, #155, #127 ) ;
#74 = DATE_AND_TIME ( #149, #165 ) ;
#75 = DIRECTION ( 'NONE',  ( 0.0000000000000000000, -1.000000000000000000, 0.0000000000000000000 ) ) ;
#76 = PERSON_AND_ORGANIZATION_ROLE ( 'classification_officer' ) ;
#77 = EDGE_LOOP ( 'NONE', ( #40 ) ) ;
#78 = CARTESIAN_POINT ( 'NONE',  ( 1.594399165321153544E-15, -5.592399457076086280E-17, 0.4566540704609469148 ) ) ;
#79 = DIRECTION ( 'NONE',  ( -3.491481338843133355E-15, 1.224646799147353207E-16, -1.000000000000000000 ) ) ;
#80 = DIRECTION ( 'NONE',  ( 3.491481338843133355E-15, -1.224646799147353207E-16, 1.000000000000000000 ) ) ;
#81 = LOCAL_TIME ( 15, 47, 56.00000000000000000, #151 ) ;
#82 = PERSON_AND_ORGANIZATION_ROLE ( 'creator' ) ;
#83 =( LENGTH_UNIT ( ) NAMED_UNIT ( * ) SI_UNIT ( .MILLI., .METRE. ) );
#84 = COORDINATED_UNIVERSAL_TIME_OFFSET ( 1, 0, .AHEAD. ) ;
#85 = CARTESIAN_POINT ( 'NONE',  ( 0.0000000000000000000, 0.0000000000000000000, 0.0000000000000000000 ) ) ;
#86 = AXIS2_PLACEMENT_3D ( 'NONE', #7, #47, #109 ) ;
#87 = DIRECTION ( 'NONE',  ( -3.491481338843133355E-15, 1.224646799147353207E-16, -1.000000000000000000 ) ) ;
#88 = DIRECTION ( 'NONE',  ( -3.491481338843133355E-15, 1.224646799147353207E-16, -1.000000000000000000 ) ) ;
#89 = FACE_BOUND ( 'NONE', #179, .T. ) ;
#90 = COORDINATED_UNIVERSAL_TIME_OFFSET ( 1, 0, .AHEAD. ) ;
#91 = ADVANCED_FACE ( 'NONE', ( #163, #181 ), #180, .T. ) ;
#92 = ORIENTED_EDGE ( 'NONE', *, *, #136, .F. ) ;
#93 = CARTESIAN_POINT ( 'NONE',  ( 0.0000000000000000000, 0.0000000000000000000, 0.0000000000000000000 ) ) ;
#94 = DIRECTION ( 'NONE',  ( -5.068236695755926278E-31, -1.000000000000000000, -1.426581805901991468E-16 ) ) ;
#95 = CARTESIAN_POINT ( 'NONE',  ( 4.189777606611760026E-14, 5.699087174114997192E-33, 12.00000000000000000 ) ) ;
#96 = CIRCLE ( 'NONE', #48, 0.7599999999999947908 ) ;
#97 = DATE_AND_TIME ( #16, #104 ) ;
#98 = APPLICATION_PROTOCOL_DEFINITION ( 'international standard', 'config_control_design', 1994, #204 ) ;
#99 = EDGE_CURVE ( 'NONE', #115, #115, #15, .T. ) ;
#100 = EDGE_CURVE ( 'NONE', #114, #114, #133, .T. ) ;
#101 = CARTESIAN_POINT ( 'NONE',  ( 1.326762908760390423E-13, 5.999039130647368167E-33, 38.00000000000000000 ) ) ;
#102 = APPROVAL_STATUS ( 'not_yet_approved' ) ;
#103 = MANIFOLD_SOLID_BREP ( 'Corps-Déplacer/Copier1[1]', #21 ) ;
#104 = LOCAL_TIME ( 15, 47, 56.00000000000000000, #84 ) ;
#105 = ORIENTED_EDGE ( 'NONE', *, *, #50, .F. ) ;
#106 = FACE_OUTER_BOUND ( 'NONE', #77, .T. ) ;
#107 = PRODUCT_DEFINITION_SHAPE ( 'NONE', 'NONE',  #9 ) ;
#108 = DIRECTION ( 'NONE',  ( -3.491481338843133355E-15, 1.224646799147353207E-16, -1.000000000000000000 ) ) ;
#109 = DIRECTION ( 'NONE',  ( -4.275831445896958607E-31, -1.000000000000000000, -1.224646799147353207E-16 ) ) ;
#110 = AXIS2_PLACEMENT_3D ( 'NONE', #162, #108, #219 ) ;
#111 = APPROVAL_PERSON_ORGANIZATION ( #170, #223, #220 ) ;
#112 = UNCERTAINTY_MEASURE_WITH_UNIT (LENGTH_MEASURE( 1.000000000000000082E-05 ), #83, 'distance_accuracy_value', 'NONE');
#113 = PERSON_AND_ORGANIZATION_ROLE ( 'design_supplier' ) ;
#114 = VERTEX_POINT ( 'NONE', #70 ) ;
#115 = VERTEX_POINT ( 'NONE', #37 ) ;
#116 = APPLICATION_PROTOCOL_DEFINITION ( 'international standard', 'config_control_design', 1994, #67 ) ;
#117 = EDGE_LOOP ( 'NONE', ( #41 ) ) ;
#118 = FACE_OUTER_BOUND ( 'NONE', #42, .T. ) ;
#119 = DIRECTION ( 'NONE',  ( 0.0000000000000000000, 1.000000000000000000, 0.0000000000000000000 ) ) ;
#120 = CARTESIAN_POINT ( 'NONE',  ( 1.594399165321153544E-15, -5.592399457076086280E-17, 0.4566540704609469148 ) ) ;
#121 = APPROVAL ( #39, 'UNSPECIFIED' ) ;
#122 = CARTESIAN_POINT ( 'NONE',  ( 1.326762908760390423E-13, -4.653657836759941941E-15, 38.00000000000000000 ) ) ;
#123 = FACE_OUTER_BOUND ( 'NONE', #5, .T. ) ;
#124 = CC_DESIGN_APPROVAL ( #223, ( #9 ) ) ;
#125 = CONICAL_SURFACE ( 'NONE', #139, 0.7599999999999936806, 1.029744258676649871 ) ;
#126 = PERSON_AND_ORGANIZATION ( #4, #62 ) ;
#127 = DIRECTION ( 'NONE',  ( 1.000000000000000000, 0.0000000000000000000, 0.0000000000000000000 ) ) ;
#128 = PERSON_AND_ORGANIZATION ( #4, #62 ) ;
#129 = APPROVAL_DATE_TIME ( #1, #148 ) ;
#130 = EDGE_CURVE ( 'NONE', #131, #131, #147, .T. ) ;
#131 = VERTEX_POINT ( 'NONE', #189 ) ;
#132 = CYLINDRICAL_SURFACE ( 'NONE', #164, 0.9999999999999986677 ) ;
#133 = CIRCLE ( 'NONE', #178, 0.7599999999999947908 ) ;
#134 =( GEOMETRIC_REPRESENTATION_CONTEXT ( 3 ) GLOBAL_UNCERTAINTY_ASSIGNED_CONTEXT ( ( #112 ) ) GLOBAL_UNIT_ASSIGNED_CONTEXT ( ( #83, #35, #71 ) ) REPRESENTATION_CONTEXT ( 'NONE', 'WORKASPACE' ) );
#135 = ORIENTED_EDGE ( 'NONE', *, *, #99, .F. ) ;
#136 = EDGE_CURVE ( 'NONE', #49, #49, #46, .T. ) ;
#137 = ORIENTED_EDGE ( 'NONE', *, *, #136, .T. ) ;
#138 = DIRECTION ( 'NONE',  ( -3.491481338843133355E-15, 1.224646799147353207E-16, -1.000000000000000000 ) ) ;
#139 = AXIS2_PLACEMENT_3D ( 'NONE', #78, #141, #94 ) ;
#140 = CC_DESIGN_DATE_AND_TIME_ASSIGNMENT ( #205, #200, ( #154 ) ) ;
#141 = DIRECTION ( 'NONE',  ( 3.491481338843133355E-15, -1.224646799147353207E-16, 1.000000000000000000 ) ) ;
#142 = DIRECTION ( 'NONE',  ( -3.491481338843133355E-15, 1.224646799147353207E-16, -1.000000000000000000 ) ) ;
#143 = FACE_BOUND ( 'NONE', #197, .T. ) ;
#144 = AXIS2_PLACEMENT_3D ( 'NONE', #101, #88, #199 ) ;
#145 = CC_DESIGN_APPROVAL ( #121, ( #161 ) ) ;
#146 = PERSON_AND_ORGANIZATION ( #4, #62 ) ;
#147 = CIRCLE ( 'NONE', #57, 0.7599999999999936806 ) ;
#148 = APPROVAL ( #102, 'UNSPECIFIED' ) ;
#149 = CALENDAR_DATE ( 2021, 7, 10 ) ;
#150 = DESIGN_CONTEXT ( 'detailed design', #204, 'design' ) ;
#151 = COORDINATED_UNIVERSAL_TIME_OFFSET ( 1, 0, .AHEAD. ) ;
#152 = PERSON_AND_ORGANIZATION_ROLE ( 'creator' ) ;
#153 = CALENDAR_DATE ( 2021, 7, 10 ) ;
#154 = SECURITY_CLASSIFICATION ( '', '', #187 ) ;
#155 = DIRECTION ( 'NONE',  ( 0.0000000000000000000, 0.0000000000000000000, 1.000000000000000000 ) ) ;
#156 = DIRECTION ( 'NONE',  ( 3.491481338843133355E-15, -1.224646799147353207E-16, 1.000000000000000000 ) ) ;
#157 = EDGE_LOOP ( 'NONE', ( #211 ) ) ;
#158 = EDGE_LOOP ( 'NONE', ( #105 ) ) ;
#159 = ORIENTED_EDGE ( 'NONE', *, *, #99, .T. ) ;
#160 = FACE_OUTER_BOUND ( 'NONE', #158, .T. ) ;
#161 = PRODUCT_DEFINITION_FORMATION_WITH_SPECIFIED_SOURCE ( 'ANY', '', #10, .NOT_KNOWN. ) ;
#162 = CARTESIAN_POINT ( 'NONE',  ( 1.326762908760390423E-13, -4.653657836759941941E-15, 38.00000000000000000 ) ) ;
#163 = FACE_OUTER_BOUND ( 'NONE', #157, .T. ) ;
#164 = AXIS2_PLACEMENT_3D ( 'NONE', #6, #138, #194 ) ;
#165 = LOCAL_TIME ( 15, 47, 56.00000000000000000, #206 ) ;
#166 = APPROVAL_STATUS ( 'not_yet_approved' ) ;
#167 = ADVANCED_FACE ( 'NONE', ( #160 ), #201, .T. ) ;
#168 = PERSON_AND_ORGANIZATION ( #4, #62 ) ;
#169 = CONICAL_SURFACE ( 'NONE', #110, 0.8000000000000010436, 0.7853981633974504994 ) ;
#170 = PERSON_AND_ORGANIZATION ( #4, #62 ) ;
#171 = APPROVAL_ROLE ( '' ) ;
#172 = AXIS2_PLACEMENT_3D ( 'NONE', #8, #216, #63 ) ;
#173 = APPROVAL_PERSON_ORGANIZATION ( #27, #148, #196 ) ;
#174 = EDGE_LOOP ( 'NONE', ( #58 ) ) ;
#175 = SHAPE_DEFINITION_REPRESENTATION ( #107, #177 ) ;
#176 = ORIENTED_EDGE ( 'NONE', *, *, #66, .F. ) ;
#177 = ADVANCED_BREP_SHAPE_REPRESENTATION ( '38962', ( #103, #184, #73 ), #134 ) ;
#178 = AXIS2_PLACEMENT_3D ( 'NONE', #202, #26, #65 ) ;
#179 = EDGE_LOOP ( 'NONE', ( #2 ) ) ;
#180 = CYLINDRICAL_SURFACE ( 'NONE', #30, 0.7599999999999942357 ) ;
#181 = FACE_OUTER_BOUND ( 'NONE', #174, .T. ) ;
#182 = VERTEX_POINT ( 'NONE', #44 ) ;
#183 = CC_DESIGN_APPROVAL ( #148, ( #154 ) ) ;
#184 = MANIFOLD_SOLID_BREP ( 'Corps-Déplacer/Copier1[2]', #212 ) ;
#185 = CC_DESIGN_PERSON_AND_ORGANIZATION_ASSIGNMENT ( #168, #76, ( #154 ) ) ;
#186 = ADVANCED_FACE ( 'NONE', ( #32, #143 ), #169, .T. ) ;
#187 = SECURITY_CLASSIFICATION_LEVEL ( 'unclassified' ) ;
#188 = MECHANICAL_CONTEXT ( 'NONE', #67, 'mechanical' ) ;
#189 = CARTESIAN_POINT ( 'NONE',  ( 1.594399165321153938E-15, 0.7599999999999935696, 0.4566540704609470258 ) ) ;
#190 = COORDINATED_UNIVERSAL_TIME_OFFSET ( 1, 0, .AHEAD. ) ;
#191 = PERSON_AND_ORGANIZATION ( #4, #62 ) ;
#192 = EDGE_LOOP ( 'NONE', ( #176 ) ) ;
#193 = CC_DESIGN_PERSON_AND_ORGANIZATION_ASSIGNMENT ( #191, #82, ( #161 ) ) ;
#194 = DIRECTION ( 'NONE',  ( 4.275831445896959482E-31, 1.000000000000000000, 1.224646799147353454E-16 ) ) ;
#195 = EDGE_LOOP ( 'NONE', ( #135 ) ) ;
#196 = APPROVAL_ROLE ( '' ) ;
#197 = EDGE_LOOP ( 'NONE', ( #137 ) ) ;
#198 = CC_DESIGN_PERSON_AND_ORGANIZATION_ASSIGNMENT ( #72, #152, ( #9 ) ) ;
#199 = DIRECTION ( 'NONE',  ( 4.275831445896958607E-31, 1.000000000000000000, 1.224646799147353207E-16 ) ) ;
#200 = DATE_TIME_ROLE ( 'classification_date' ) ;
#201 = PLANE ( 'NONE',  #12 ) ;
#202 = CARTESIAN_POINT ( 'NONE',  ( 4.189777606611760026E-14, -1.469576158976823947E-15, 12.00000000000000000 ) ) ;
#203 = DIRECTION ( 'NONE',  ( 5.068236695755926278E-31, 1.000000000000000000, 1.426581805901991468E-16 ) ) ;
#204 = APPLICATION_CONTEXT ( 'configuration controlled 3d designs of mechanical parts and assemblies' ) ;
#205 = DATE_AND_TIME ( #59, #69 ) ;
#206 = COORDINATED_UNIVERSAL_TIME_OFFSET ( 1, 0, .AHEAD. ) ;
#207 = AXIS2_PLACEMENT_3D ( 'NONE', #122, #79, #45 ) ;
#208 = APPROVAL_DATE_TIME ( #74, #121 ) ;
#209 = PLANE ( 'NONE',  #144 ) ;
#210 = ADVANCED_FACE ( 'NONE', ( #123 ), #217, .F. ) ;
#211 = ORIENTED_EDGE ( 'NONE', *, *, #130, .F. ) ;
#212 = CLOSED_SHELL ( 'NONE', ( #221, #91, #167 ) ) ;
#213 = CARTESIAN_POINT ( 'NONE',  ( 4.189777606611760026E-14, -1.469576158976823947E-15, 12.00000000000000000 ) ) ;
#214 = CARTESIAN_POINT ( 'NONE',  ( 1.319779946082704535E-13, -4.629164900776995227E-15, 37.79999999999999716 ) ) ;
#215 = AXIS2_PLACEMENT_3D ( 'NONE', #214, #43, #119 ) ;
#216 = DIRECTION ( 'NONE',  ( -3.491481338843133355E-15, 1.224646799147353207E-16, -1.000000000000000000 ) ) ;
#217 = PLANE ( 'NONE',  #86 ) ;
#218 = PRODUCT_RELATED_PRODUCT_CATEGORY ( 'detail', '', ( #10 ) ) ;
#219 = DIRECTION ( 'NONE',  ( 0.0000000000000000000, 1.000000000000000000, 0.0000000000000000000 ) ) ;
#220 = APPROVAL_ROLE ( '' ) ;
#221 = ADVANCED_FACE ( 'NONE', ( #106 ), #125, .T. ) ;
#222 = DATE_TIME_ROLE ( 'creation_date' ) ;
#223 = APPROVAL ( #166, 'UNSPECIFIED' ) ;
ENDSEC;
END-ISO-10303-21;
