ISO-10303-21;
HEADER;
FILE_DESCRIPTION (( 'STEP AP203' ),
    '1' );
FILE_NAME ('38938.step',
    '2021-10-07T13:47:55',
    ( '' ),
    ( '' ),
    'SwSTEP 2.0',
    'SolidWorks 2019',
    '' );
FILE_SCHEMA (( 'CONFIG_CONTROL_DESIGN' ));
ENDSEC;

DATA;
#1 = SECURITY_CLASSIFICATION_LEVEL ( 'unclassified' ) ;
#2 = PERSON_AND_ORGANIZATION_ROLE ( 'creator' ) ;
#3 = CIRCLE ( 'NONE', #24, 0.8000000000000010436 ) ;
#4 = VERTEX_POINT ( 'NONE', #186 ) ;
#5 = CARTESIAN_POINT ( 'NONE',  ( 4.189777606611760026E-14, 0.7649999999999940181, 12.00000000000000000 ) ) ;
#6 = AXIS2_PLACEMENT_3D ( 'NONE', #97, #144, #217 ) ;
#7 = ADVANCED_FACE ( 'NONE', ( #10, #142 ), #56, .T. ) ;
#8 = CALENDAR_DATE ( 2021, 7, 10 ) ;
#9 = ADVANCED_FACE ( 'NONE', ( #216 ), #122, .T. ) ;
#10 = FACE_BOUND ( 'NONE', #161, .T. ) ;
#11 = CARTESIAN_POINT ( 'NONE',  ( 1.326762908760390423E-13, -4.653657836759941941E-15, 38.00000000000000000 ) ) ;
#12 = FACE_OUTER_BOUND ( 'NONE', #128, .T. ) ;
#13 = FACE_OUTER_BOUND ( 'NONE', #214, .T. ) ;
#14 = DIRECTION ( 'NONE',  ( 4.275831445896958607E-31, 1.000000000000000000, 1.224646799147353207E-16 ) ) ;
#15 = CC_DESIGN_PERSON_AND_ORGANIZATION_ASSIGNMENT ( #75, #123, ( #51 ) ) ;
#16 = CC_DESIGN_APPROVAL ( #178, ( #51 ) ) ;
#17 = PERSON_AND_ORGANIZATION ( #71, #79 ) ;
#18 = PERSON_AND_ORGANIZATION ( #71, #79 ) ;
#19 = PERSON_AND_ORGANIZATION_ROLE ( 'design_owner' ) ;
#20 = CARTESIAN_POINT ( 'NONE',  ( 0.0000000000000000000, 0.0000000000000000000, 0.0000000000000000000 ) ) ;
#21 = CC_DESIGN_PERSON_AND_ORGANIZATION_ASSIGNMENT ( #18, #19, ( #183 ) ) ;
#22 = DIRECTION ( 'NONE',  ( 1.000000000000000000, 0.0000000000000000000, 0.0000000000000000000 ) ) ;
#23 = CC_DESIGN_DATE_AND_TIME_ASSIGNMENT ( #139, #112, ( #51 ) ) ;
#24 = AXIS2_PLACEMENT_3D ( 'NONE', #221, #53, #82 ) ;
#25 = MANIFOLD_SOLID_BREP ( 'Corps-Déplacer/Copier1[2]', #35 ) ;
#26 = EDGE_LOOP ( 'NONE', ( #114 ) ) ;
#27 = APPROVAL_PERSON_ORGANIZATION ( #176, #178, #194 ) ;
#28 = DIRECTION ( 'NONE',  ( 0.0000000000000000000, -1.000000000000000000, 0.0000000000000000000 ) ) ;
#29 = FACE_OUTER_BOUND ( 'NONE', #156, .T. ) ;
#30 = APPROVAL_PERSON_ORGANIZATION ( #124, #192, #90 ) ;
#31 = DIRECTION ( 'NONE',  ( -3.491481338843133355E-15, 1.224646799147353207E-16, -1.000000000000000000 ) ) ;
#32 = FACE_OUTER_BOUND ( 'NONE', #195, .T. ) ;
#33 = APPLICATION_CONTEXT ( 'configuration controlled 3d designs of mechanical parts and assemblies' ) ;
#34 = DIRECTION ( 'NONE',  ( 3.491481338843133355E-15, -1.224646799147353207E-16, 1.000000000000000000 ) ) ;
#35 = CLOSED_SHELL ( 'NONE', ( #9, #222, #111 ) ) ;
#36 =( NAMED_UNIT ( * ) PLANE_ANGLE_UNIT ( ) SI_UNIT ( $, .RADIAN. ) );
#37 = APPROVAL_ROLE ( '' ) ;
#38 = VERTEX_POINT ( 'NONE', #209 ) ;
#39 = CALENDAR_DATE ( 2021, 7, 10 ) ;
#40 = CALENDAR_DATE ( 2021, 7, 10 ) ;
#41 = ADVANCED_FACE ( 'NONE', ( #12, #145 ), #91, .T. ) ;
#42 = AXIS2_PLACEMENT_3D ( 'NONE', #164, #116, #73 ) ;
#43 = SHAPE_DEFINITION_REPRESENTATION ( #189, #172 ) ;
#44 = ORIENTED_EDGE ( 'NONE', *, *, #52, .T. ) ;
#45 = ORIENTED_EDGE ( 'NONE', *, *, #187, .T. ) ;
#46 = APPLICATION_CONTEXT ( 'configuration controlled 3d designs of mechanical parts and assemblies' ) ;
#47 = AXIS2_PLACEMENT_3D ( 'NONE', #166, #84, #14 ) ;
#48 = DIRECTION ( 'NONE',  ( 0.0000000000000000000, 1.000000000000000000, 0.0000000000000000000 ) ) ;
#49 = FACE_OUTER_BOUND ( 'NONE', #92, .T. ) ;
#50 = DIRECTION ( 'NONE',  ( -4.275831445896958607E-31, -1.000000000000000000, -1.224646799147353207E-16 ) ) ;
#51 = SECURITY_CLASSIFICATION ( '', '', #1 ) ;
#52 = EDGE_CURVE ( 'NONE', #146, #146, #63, .T. ) ;
#53 = DIRECTION ( 'NONE',  ( -3.491481338843133355E-15, 1.224646799147353207E-16, -1.000000000000000000 ) ) ;
#54 = DIRECTION ( 'NONE',  ( 5.035110965718295701E-31, 1.000000000000000000, 1.417257741811125924E-16 ) ) ;
#55 = VERTEX_POINT ( 'NONE', #5 ) ;
#56 = CONICAL_SURFACE ( 'NONE', #174, 0.9999999999999978906, 0.5235987755982961511 ) ;
#57 = MECHANICAL_CONTEXT ( 'NONE', #33, 'mechanical' ) ;
#58 = COORDINATED_UNIVERSAL_TIME_OFFSET ( 1, 0, .AHEAD. ) ;
#59 = DATE_AND_TIME ( #40, #152 ) ;
#60 = COORDINATED_UNIVERSAL_TIME_OFFSET ( 1, 0, .AHEAD. ) ;
#61 = COORDINATED_UNIVERSAL_TIME_OFFSET ( 1, 0, .AHEAD. ) ;
#62 = ORIENTED_EDGE ( 'NONE', *, *, #100, .F. ) ;
#63 = CIRCLE ( 'NONE', #159, 0.9999999999999978906 ) ;
#64 = CC_DESIGN_APPROVAL ( #76, ( #140 ) ) ;
#65 = EDGE_CURVE ( 'NONE', #219, #219, #115, .T. ) ;
#66 = ORIENTED_EDGE ( 'NONE', *, *, #65, .T. ) ;
#67 = CARTESIAN_POINT ( 'NONE',  ( 4.331892048816803361E-14, -1.519423195196895307E-15, 12.40703193977869390 ) ) ;
#68 = CC_DESIGN_PERSON_AND_ORGANIZATION_ASSIGNMENT ( #17, #223, ( #140 ) ) ;
#69 = CIRCLE ( 'NONE', #154, 0.7649999999999954614 ) ;
#70 = DIRECTION ( 'NONE',  ( -3.491481338843133355E-15, 1.224646799147353207E-16, -1.000000000000000000 ) ) ;
#71 = PERSON ( 'UNSPECIFIED', 'UNSPECIFIED', 'UNSPECIFIED', ('UNSPECIFIED'), ('UNSPECIFIED'), ('UNSPECIFIED') ) ;
#72 = CYLINDRICAL_SURFACE ( 'NONE', #143, 0.9999999999999991118 ) ;
#73 = DIRECTION ( 'NONE',  ( -5.035110965718295701E-31, -1.000000000000000000, -1.417257741811125924E-16 ) ) ;
#74 = APPLICATION_PROTOCOL_DEFINITION ( 'international standard', 'config_control_design', 1994, #46 ) ;
#75 = PERSON_AND_ORGANIZATION ( #71, #79 ) ;
#76 = APPROVAL ( #153, 'UNSPECIFIED' ) ;
#77 = AXIS2_PLACEMENT_3D ( 'NONE', #20, #167, #22 ) ;
#78 = CALENDAR_DATE ( 2021, 7, 10 ) ;
#79 = ORGANIZATION ( 'UNSPECIFIED', 'UNSPECIFIED', '' ) ;
#80 = ORIENTED_EDGE ( 'NONE', *, *, #131, .F. ) ;
#81 = CARTESIAN_POINT ( 'NONE',  ( 1.604888633514059969E-15, 0.7649999999999950173, 0.4596583735560859085 ) ) ;
#82 = DIRECTION ( 'NONE',  ( 0.0000000000000000000, 1.000000000000000000, 0.0000000000000000000 ) ) ;
#83 = FACE_OUTER_BOUND ( 'NONE', #196, .T. ) ;
#84 = DIRECTION ( 'NONE',  ( -3.491481338843133355E-15, 1.224646799147353207E-16, -1.000000000000000000 ) ) ;
#85 = CARTESIAN_POINT ( 'NONE',  ( 1.319779946082704535E-13, -4.629164900776995227E-15, 37.79999999999999716 ) ) ;
#86 = COORDINATED_UNIVERSAL_TIME_OFFSET ( 1, 0, .AHEAD. ) ;
#87 = APPROVAL_STATUS ( 'not_yet_approved' ) ;
#88 = DATE_AND_TIME ( #39, #169 ) ;
#89 = EDGE_CURVE ( 'NONE', #125, #125, #197, .T. ) ;
#90 = APPROVAL_ROLE ( '' ) ;
#91 = CONICAL_SURFACE ( 'NONE', #148, 0.8000000000000010436, 0.7853981633974504994 ) ;
#92 = EDGE_LOOP ( 'NONE', ( #198 ) ) ;
#93 = EDGE_LOOP ( 'NONE', ( #44 ) ) ;
#94 = CIRCLE ( 'NONE', #204, 0.7649999999999954614 ) ;
#95 = CC_DESIGN_PERSON_AND_ORGANIZATION_ASSIGNMENT ( #106, #170, ( #140 ) ) ;
#96 = DIRECTION ( 'NONE',  ( 0.0000000000000000000, 1.000000000000000000, 0.0000000000000000000 ) ) ;
#97 = CARTESIAN_POINT ( 'NONE',  ( 1.326762908760390423E-13, 5.999039130647368167E-33, 38.00000000000000000 ) ) ;
#98 = AXIS2_PLACEMENT_3D ( 'NONE', #85, #31, #101 ) ;
#99 = DIRECTION ( 'NONE',  ( -3.491481338843133355E-15, 1.224646799147353207E-16, -1.000000000000000000 ) ) ;
#100 = EDGE_CURVE ( 'NONE', #38, #38, #94, .T. ) ;
#101 = DIRECTION ( 'NONE',  ( 0.0000000000000000000, 1.000000000000000000, 0.0000000000000000000 ) ) ;
#102 = CYLINDRICAL_SURFACE ( 'NONE', #47, 0.7649999999999952394 ) ;
#103 = LOCAL_TIME ( 15, 47, 55.00000000000000000, #188 ) ;
#104 = ADVANCED_FACE ( 'NONE', ( #49, #32 ), #72, .T. ) ;
#105 =( LENGTH_UNIT ( ) NAMED_UNIT ( * ) SI_UNIT ( .MILLI., .METRE. ) );
#106 = PERSON_AND_ORGANIZATION ( #71, #79 ) ;
#107 = LOCAL_TIME ( 15, 47, 55.00000000000000000, #61 ) ;
#108 = APPROVAL_DATE_TIME ( #59, #76 ) ;
#109 = DATE_AND_TIME ( #8, #107 ) ;
#110 = ORIENTED_EDGE ( 'NONE', *, *, #65, .F. ) ;
#111 = ADVANCED_FACE ( 'NONE', ( #29 ), #218, .T. ) ;
#112 = DATE_TIME_ROLE ( 'classification_date' ) ;
#113 = APPROVAL_STATUS ( 'not_yet_approved' ) ;
#114 = ORIENTED_EDGE ( 'NONE', *, *, #100, .T. ) ;
#115 = CIRCLE ( 'NONE', #151, 0.7649999999999951283 ) ;
#116 = DIRECTION ( 'NONE',  ( 3.491481338843133355E-15, -1.224646799147353207E-16, 1.000000000000000000 ) ) ;
#117 = DIRECTION ( 'NONE',  ( 4.275831445896957731E-31, 1.000000000000000000, 1.224646799147353207E-16 ) ) ;
#118 = APPROVAL_PERSON_ORGANIZATION ( #136, #76, #37 ) ;
#119 = DIRECTION ( 'NONE',  ( 3.491481338843133355E-15, -1.224646799147353207E-16, 1.000000000000000000 ) ) ;
#120 = FACE_OUTER_BOUND ( 'NONE', #26, .T. ) ;
#121 =( NAMED_UNIT ( * ) SI_UNIT ( $, .STERADIAN. ) SOLID_ANGLE_UNIT ( ) );
#122 = CONICAL_SURFACE ( 'NONE', #42, 0.7649999999999951283, 1.029744258676649649 ) ;
#123 = PERSON_AND_ORGANIZATION_ROLE ( 'classification_officer' ) ;
#124 = PERSON_AND_ORGANIZATION ( #71, #79 ) ;
#125 = VERTEX_POINT ( 'NONE', #207 ) ;
#126 = ORIENTED_EDGE ( 'NONE', *, *, #89, .F. ) ;
#127 = AXIS2_PLACEMENT_3D ( 'NONE', #203, #119, #50 ) ;
#128 = EDGE_LOOP ( 'NONE', ( #126 ) ) ;
#129 = DESIGN_CONTEXT ( 'detailed design', #46, 'design' ) ;
#130 = CARTESIAN_POINT ( 'NONE',  ( 1.604888633514059574E-15, -5.629191558767388648E-17, 0.4596583735560857975 ) ) ;
#131 = EDGE_CURVE ( 'NONE', #4, #4, #3, .T. ) ;
#132 = DIRECTION ( 'NONE',  ( -4.275831445896958607E-31, -1.000000000000000000, -1.224646799147353207E-16 ) ) ;
#133 = DIRECTION ( 'NONE',  ( -3.491481338843133355E-15, 1.224646799147353207E-16, -1.000000000000000000 ) ) ;
#134 = ADVANCED_FACE ( 'NONE', ( #120 ), #184, .F. ) ;
#135 = FACE_OUTER_BOUND ( 'NONE', #199, .T. ) ;
#136 = PERSON_AND_ORGANIZATION ( #71, #79 ) ;
#137 = CC_DESIGN_DATE_AND_TIME_ASSIGNMENT ( #193, #149, ( #158 ) ) ;
#138 = APPROVAL_DATE_TIME ( #109, #178 ) ;
#139 = DATE_AND_TIME ( #78, #103 ) ;
#140 = PRODUCT_DEFINITION_FORMATION_WITH_SPECIFIED_SOURCE ( 'ANY', '', #183, .NOT_KNOWN. ) ;
#141 = ORIENTED_EDGE ( 'NONE', *, *, #89, .T. ) ;
#142 = FACE_OUTER_BOUND ( 'NONE', #93, .T. ) ;
#143 = AXIS2_PLACEMENT_3D ( 'NONE', #201, #205, #117 ) ;
#144 = DIRECTION ( 'NONE',  ( -3.491481338843133355E-15, 1.224646799147353207E-16, -1.000000000000000000 ) ) ;
#145 = FACE_BOUND ( 'NONE', #173, .T. ) ;
#146 = VERTEX_POINT ( 'NONE', #147 ) ;
#147 = CARTESIAN_POINT ( 'NONE',  ( 4.331892048816803361E-14, 0.9999999999999963363, 12.40703193977869390 ) ) ;
#148 = AXIS2_PLACEMENT_3D ( 'NONE', #11, #133, #48 ) ;
#149 = DATE_TIME_ROLE ( 'creation_date' ) ;
#150 = PERSON_AND_ORGANIZATION ( #71, #79 ) ;
#151 = AXIS2_PLACEMENT_3D ( 'NONE', #130, #70, #54 ) ;
#152 = LOCAL_TIME ( 15, 47, 55.00000000000000000, #58 ) ;
#153 = APPROVAL_STATUS ( 'not_yet_approved' ) ;
#154 = AXIS2_PLACEMENT_3D ( 'NONE', #206, #99, #163 ) ;
#155 = EDGE_LOOP ( 'NONE', ( #66 ) ) ;
#156 = EDGE_LOOP ( 'NONE', ( #157 ) ) ;
#157 = ORIENTED_EDGE ( 'NONE', *, *, #187, .F. ) ;
#158 = PRODUCT_DEFINITION ( 'UNKNOWN', '', #140, #129 ) ;
#159 = AXIS2_PLACEMENT_3D ( 'NONE', #67, #179, #96 ) ;
#160 = UNCERTAINTY_MEASURE_WITH_UNIT (LENGTH_MEASURE( 1.000000000000000082E-05 ), #105, 'distance_accuracy_value', 'NONE');
#161 = EDGE_LOOP ( 'NONE', ( #62 ) ) ;
#162 = DIRECTION ( 'NONE',  ( -3.491481338843133355E-15, 1.224646799147353207E-16, -1.000000000000000000 ) ) ;
#163 = DIRECTION ( 'NONE',  ( 0.0000000000000000000, 1.000000000000000000, 0.0000000000000000000 ) ) ;
#164 = CARTESIAN_POINT ( 'NONE',  ( 1.604888633514059574E-15, -5.629191558767388648E-17, 0.4596583735560857975 ) ) ;
#165 = CARTESIAN_POINT ( 'NONE',  ( 4.189777606611760026E-14, 5.736581168681549380E-33, 12.00000000000000000 ) ) ;
#166 = CARTESIAN_POINT ( 'NONE',  ( 0.0000000000000000000, 0.0000000000000000000, 0.0000000000000000000 ) ) ;
#167 = DIRECTION ( 'NONE',  ( 0.0000000000000000000, 0.0000000000000000000, 1.000000000000000000 ) ) ;
#168 = MANIFOLD_SOLID_BREP ( 'Corps-Déplacer/Copier1[1]', #185 ) ;
#169 = LOCAL_TIME ( 15, 47, 55.00000000000000000, #86 ) ;
#170 = PERSON_AND_ORGANIZATION_ROLE ( 'creator' ) ;
#171 = ADVANCED_FACE ( 'NONE', ( #135 ), #182, .F. ) ;
#172 = ADVANCED_BREP_SHAPE_REPRESENTATION ( '38938', ( #168, #25, #77 ), #220 ) ;
#173 = EDGE_LOOP ( 'NONE', ( #212 ) ) ;
#174 = AXIS2_PLACEMENT_3D ( 'NONE', #215, #34, #28 ) ;
#175 = CC_DESIGN_SECURITY_CLASSIFICATION ( #51, ( #140 ) ) ;
#176 = PERSON_AND_ORGANIZATION ( #71, #79 ) ;
#177 = CC_DESIGN_PERSON_AND_ORGANIZATION_ASSIGNMENT ( #150, #2, ( #158 ) ) ;
#178 = APPROVAL ( #113, 'UNSPECIFIED' ) ;
#179 = DIRECTION ( 'NONE',  ( -3.491481338843133355E-15, 1.224646799147353207E-16, -1.000000000000000000 ) ) ;
#180 = DIRECTION ( 'NONE',  ( 0.0000000000000000000, 1.000000000000000000, 0.0000000000000000000 ) ) ;
#181 = DIRECTION ( 'NONE',  ( 3.491481338843133355E-15, -1.224646799147353207E-16, 1.000000000000000000 ) ) ;
#182 = PLANE ( 'NONE',  #6 ) ;
#183 = PRODUCT ( '38938', '38938', '', ( #57 ) ) ;
#184 = PLANE ( 'NONE',  #127 ) ;
#185 = CLOSED_SHELL ( 'NONE', ( #134, #7, #104, #41, #171 ) ) ;
#186 = CARTESIAN_POINT ( 'NONE',  ( 1.326762908760390423E-13, 0.7999999999999963807, 38.00000000000000000 ) ) ;
#187 = EDGE_CURVE ( 'NONE', #55, #55, #69, .T. ) ;
#188 = COORDINATED_UNIVERSAL_TIME_OFFSET ( 1, 0, .AHEAD. ) ;
#189 = PRODUCT_DEFINITION_SHAPE ( 'NONE', 'NONE',  #158 ) ;
#190 = APPROVAL_DATE_TIME ( #88, #192 ) ;
#191 = APPLICATION_PROTOCOL_DEFINITION ( 'international standard', 'config_control_design', 1994, #33 ) ;
#192 = APPROVAL ( #87, 'UNSPECIFIED' ) ;
#193 = DATE_AND_TIME ( #211, #213 ) ;
#194 = APPROVAL_ROLE ( '' ) ;
#195 = EDGE_LOOP ( 'NONE', ( #141 ) ) ;
#196 = EDGE_LOOP ( 'NONE', ( #110 ) ) ;
#197 = CIRCLE ( 'NONE', #98, 1.000000000000000666 ) ;
#198 = ORIENTED_EDGE ( 'NONE', *, *, #52, .F. ) ;
#199 = EDGE_LOOP ( 'NONE', ( #80 ) ) ;
#200 = AXIS2_PLACEMENT_3D ( 'NONE', #165, #181, #132 ) ;
#201 = CARTESIAN_POINT ( 'NONE',  ( 0.0000000000000000000, 0.0000000000000000000, 0.0000000000000000000 ) ) ;
#202 = CARTESIAN_POINT ( 'NONE',  ( 4.189777606611760026E-14, -1.469576158976823947E-15, 12.00000000000000000 ) ) ;
#203 = CARTESIAN_POINT ( 'NONE',  ( 4.189777606611760026E-14, 5.736581168681549380E-33, 12.00000000000000000 ) ) ;
#204 = AXIS2_PLACEMENT_3D ( 'NONE', #202, #162, #180 ) ;
#205 = DIRECTION ( 'NONE',  ( -3.491481338843133355E-15, 1.224646799147353207E-16, -1.000000000000000000 ) ) ;
#206 = CARTESIAN_POINT ( 'NONE',  ( 4.189777606611760026E-14, -1.469576158976823947E-15, 12.00000000000000000 ) ) ;
#207 = CARTESIAN_POINT ( 'NONE',  ( 1.319779946082704535E-13, 0.9999999999999961142, 37.79999999999999716 ) ) ;
#208 = PRODUCT_RELATED_PRODUCT_CATEGORY ( 'detail', '', ( #183 ) ) ;
#209 = CARTESIAN_POINT ( 'NONE',  ( 4.189777606611760026E-14, 0.7649999999999940181, 12.00000000000000000 ) ) ;
#210 = CC_DESIGN_APPROVAL ( #192, ( #158 ) ) ;
#211 = CALENDAR_DATE ( 2021, 7, 10 ) ;
#212 = ORIENTED_EDGE ( 'NONE', *, *, #131, .T. ) ;
#213 = LOCAL_TIME ( 15, 47, 55.00000000000000000, #60 ) ;
#214 = EDGE_LOOP ( 'NONE', ( #45 ) ) ;
#215 = CARTESIAN_POINT ( 'NONE',  ( 4.331892048816803361E-14, -1.519423195196895307E-15, 12.40703193977869390 ) ) ;
#216 = FACE_OUTER_BOUND ( 'NONE', #155, .T. ) ;
#217 = DIRECTION ( 'NONE',  ( 4.275831445896958607E-31, 1.000000000000000000, 1.224646799147353207E-16 ) ) ;
#218 = PLANE ( 'NONE',  #200 ) ;
#219 = VERTEX_POINT ( 'NONE', #81 ) ;
#220 =( GEOMETRIC_REPRESENTATION_CONTEXT ( 3 ) GLOBAL_UNCERTAINTY_ASSIGNED_CONTEXT ( ( #160 ) ) GLOBAL_UNIT_ASSIGNED_CONTEXT ( ( #105, #36, #121 ) ) REPRESENTATION_CONTEXT ( 'NONE', 'WORKASPACE' ) );
#221 = CARTESIAN_POINT ( 'NONE',  ( 1.326762908760390423E-13, -4.653657836759941941E-15, 38.00000000000000000 ) ) ;
#222 = ADVANCED_FACE ( 'NONE', ( #83, #13 ), #102, .T. ) ;
#223 = PERSON_AND_ORGANIZATION_ROLE ( 'design_supplier' ) ;
ENDSEC;
END-ISO-10303-21;
