ISO-10303-21;
HEADER;
FILE_DESCRIPTION (( 'STEP AP203' ),
    '1' );
FILE_NAME ('388818.step',
    '2021-12-13T10:26:03',
    ( '' ),
    ( '' ),
    'SwSTEP 2.0',
    'SolidWorks 2019',
    '' );
FILE_SCHEMA (( 'CONFIG_CONTROL_DESIGN' ));
ENDSEC;

DATA;
#1 = APPROVAL ( #80, 'UNSPECIFIED' ) ;
#2 = ORIENTED_EDGE ( 'NONE', *, *, #32, .F. ) ;
#3 = EDGE_LOOP ( 'NONE', ( #302 ) ) ;
#4 = PLANE ( 'NONE',  #286 ) ;
#5 = APPROVAL_PERSON_ORGANIZATION ( #257, #60, #258 ) ;
#6 = DIRECTION ( 'NONE',  ( -3.491481338843133355E-15, 1.224646799147353207E-16, -1.000000000000000000 ) ) ;
#7 = ADVANCED_FACE ( 'NONE', ( #186, #276 ), #105, .T. ) ;
#8 = COORDINATED_UNIVERSAL_TIME_OFFSET ( 1, 0, .AHEAD. ) ;
#9 = EDGE_CURVE ( 'NONE', #243, #243, #31, .T. ) ;
#10 = LOCAL_TIME ( 11, 26, 3.000000000000000000, #213 ) ;
#11 = CARTESIAN_POINT ( 'NONE',  ( 8.065321892727638682E-14, -2.831168287591325761E-15, 23.10000000000000142 ) ) ;
#12 = CARTESIAN_POINT ( 'NONE',  ( 5.272136821653131366E-14, 2.501807066372217392, 15.09999999999999964 ) ) ;
#13 = DIRECTION ( 'NONE',  ( 3.491481338843133355E-15, -1.224100544486976698E-16, 1.000000000000000000 ) ) ;
#14 = AXIS2_PLACEMENT_3D ( 'NONE', #313, #49, #67 ) ;
#15 = FACE_OUTER_BOUND ( 'NONE', #25, .T. ) ;
#16 = CARTESIAN_POINT ( 'NONE',  ( 2.234548056859605347E-13, -7.837739514543060526E-15, 64.00000000000000000 ) ) ;
#17 = CARTESIAN_POINT ( 'NONE',  ( 8.065321892727638682E-14, -3.950000000000002842, 23.10000000000000142 ) ) ;
#18 = EDGE_CURVE ( 'NONE', #262, #262, #74, .T. ) ;
#19 =( NAMED_UNIT ( * ) SI_UNIT ( $, .STERADIAN. ) SOLID_ANGLE_UNIT ( ) );
#20 = CYLINDRICAL_SURFACE ( 'NONE', #146, 3.999999999999998224 ) ;
#21 = PERSON_AND_ORGANIZATION ( #160, #255 ) ;
#22 = LOCAL_TIME ( 11, 26, 3.000000000000000000, #8 ) ;
#23 = DIRECTION ( 'NONE',  ( 0.0000000000000000000, -1.000000000000000000, 0.0000000000000000000 ) ) ;
#24 = AXIS2_PLACEMENT_3D ( 'NONE', #85, #209, #307 ) ;
#25 = EDGE_LOOP ( 'NONE', ( #268 ) ) ;
#26 = ORIENTED_EDGE ( 'NONE', *, *, #70, .F. ) ;
#27 = AXIS2_PLACEMENT_3D ( 'NONE', #279, #61, #162 ) ;
#28 = EDGE_LOOP ( 'NONE', ( #52 ) ) ;
#29 = CALENDAR_DATE ( 2021, 13, 12 ) ;
#30 = EDGE_LOOP ( 'NONE', ( #2 ) ) ;
#31 = CIRCLE ( 'NONE', #214, 2.499999999999998668 ) ;
#32 = EDGE_CURVE ( 'NONE', #145, #145, #112, .T. ) ;
#33 = DIRECTION ( 'NONE',  ( 0.0000000000000000000, -1.000000000000000000, 0.0000000000000000000 ) ) ;
#34 = PLANE ( 'NONE',  #27 ) ;
#35 = TOROIDAL_SURFACE ( 'NONE', #14, 4.500000000000000888, 2.000000000000000000 ) ;
#36 = EDGE_CURVE ( 'NONE', #47, #47, #308, .T. ) ;
#37 =( NAMED_UNIT ( * ) PLANE_ANGLE_UNIT ( ) SI_UNIT ( $, .RADIAN. ) );
#38 = APPROVAL_STATUS ( 'not_yet_approved' ) ;
#39 = CARTESIAN_POINT ( 'NONE',  ( -4.275851038235246598E-31, 1.499766654729053059E-32, -1.224652410616064228E-16 ) ) ;
#40 = AXIS2_PLACEMENT_3D ( 'NONE', #108, #6, #191 ) ;
#41 = CARTESIAN_POINT ( 'NONE',  ( 3.700970219173720726E-14, -2.500000000000001332, 10.59999999999999787 ) ) ;
#42 = CARTESIAN_POINT ( 'NONE',  ( 2.234548056859605347E-13, -7.837739514543060526E-15, 64.00000000000000000 ) ) ;
#43 = DESIGN_CONTEXT ( 'detailed design', #117, 'design' ) ;
#44 = CARTESIAN_POINT ( 'NONE',  ( 2.234548056859605347E-13, -3.200000000000008615, 64.00000000000000000 ) ) ;
#45 = APPROVAL_DATE_TIME ( #92, #60 ) ;
#46 = AXIS2_PLACEMENT_3D ( 'NONE', #220, #240, #149 ) ;
#47 = VERTEX_POINT ( 'NONE', #17 ) ;
#48 = EDGE_CURVE ( 'NONE', #119, #119, #87, .T. ) ;
#49 = DIRECTION ( 'NONE',  ( 3.491481338843133355E-15, -1.224100544486976698E-16, 1.000000000000000000 ) ) ;
#50 = DIRECTION ( 'NONE',  ( 3.491481338843133355E-15, -1.224100544486976698E-16, 1.000000000000000000 ) ) ;
#51 = ADVANCED_FACE ( 'NONE', ( #81, #185 ), #256, .T. ) ;
#52 = ORIENTED_EDGE ( 'NONE', *, *, #48, .F. ) ;
#53 = PERSON_AND_ORGANIZATION ( #160, #255 ) ;
#54 = CALENDAR_DATE ( 2021, 13, 12 ) ;
#55 = AXIS2_PLACEMENT_3D ( 'NONE', #238, #278, #59 ) ;
#56 = ORIENTED_EDGE ( 'NONE', *, *, #227, .T. ) ;
#57 = FACE_OUTER_BOUND ( 'NONE', #183, .T. ) ;
#58 = ORIENTED_EDGE ( 'NONE', *, *, #129, .F. ) ;
#59 = DIRECTION ( 'NONE',  ( 0.0000000000000000000, 1.000000000000000000, 0.0000000000000000000 ) ) ;
#60 = APPROVAL ( #38, 'UNSPECIFIED' ) ;
#61 = DIRECTION ( 'NONE',  ( -3.491481338843133355E-15, 1.224100544486976698E-16, -1.000000000000000000 ) ) ;
#62 = CIRCLE ( 'NONE', #242, 2.501807066372218724 ) ;
#63 = ADVANCED_FACE ( 'NONE', ( #65, #138 ), #166, .F. ) ;
#64 = DATE_TIME_ROLE ( 'classification_date' ) ;
#65 = FACE_OUTER_BOUND ( 'NONE', #297, .T. ) ;
#66 = PERSON_AND_ORGANIZATION_ROLE ( 'creator' ) ;
#67 = DIRECTION ( 'NONE',  ( -4.273924207943998360E-31, -1.000000000000000000, -1.224100544486976698E-16 ) ) ;
#68 = AXIS2_PLACEMENT_3D ( 'NONE', #127, #78, #124 ) ;
#69 = FACE_OUTER_BOUND ( 'NONE', #231, .T. ) ;
#70 = EDGE_CURVE ( 'NONE', #73, #73, #168, .T. ) ;
#71 = CARTESIAN_POINT ( 'NONE',  ( 2.234548056859605347E-13, -7.837739514543060526E-15, 64.00000000000000000 ) ) ;
#72 = APPROVAL_PERSON_ORGANIZATION ( #323, #158, #235 ) ;
#73 = VERTEX_POINT ( 'NONE', #75 ) ;
#74 = CIRCLE ( 'NONE', #251, 3.200000000000001066 ) ;
#75 = CARTESIAN_POINT ( 'NONE',  ( 2.206616206148860281E-13, -4.000000000000008882, 63.20000000000000284 ) ) ;
#76 = ORIENTED_EDGE ( 'NONE', *, *, #18, .T. ) ;
#77 = ORIENTED_EDGE ( 'NONE', *, *, #129, .T. ) ;
#78 = DIRECTION ( 'NONE',  ( 3.491481338843133355E-15, -1.224100544486976698E-16, 1.000000000000000000 ) ) ;
#79 = ORIENTED_EDGE ( 'NONE', *, *, #36, .F. ) ;
#80 = APPROVAL_STATUS ( 'not_yet_approved' ) ;
#81 = FACE_OUTER_BOUND ( 'NONE', #132, .T. ) ;
#82 = ORIENTED_EDGE ( 'NONE', *, *, #48, .T. ) ;
#83 = CALENDAR_DATE ( 2021, 13, 12 ) ;
#84 = AXIS2_PLACEMENT_3D ( 'NONE', #12, #265, #113 ) ;
#85 = CARTESIAN_POINT ( 'NONE',  ( 2.234548056859605347E-13, -7.837739514543060526E-15, 64.00000000000000000 ) ) ;
#86 = DIRECTION ( 'NONE',  ( -3.491481338843133355E-15, 1.224100544486976698E-16, -1.000000000000000000 ) ) ;
#87 = CIRCLE ( 'NONE', #234, 3.099999999999999645 ) ;
#88 = DIRECTION ( 'NONE',  ( -3.491481338843133355E-15, 1.224646799147353207E-16, -1.000000000000000000 ) ) ;
#89 = CARTESIAN_POINT ( 'NONE',  ( 2.206616206148860281E-13, -7.739811470984101976E-15, 63.20000000000000284 ) ) ;
#90 = VERTEX_POINT ( 'NONE', #41 ) ;
#91 = CARTESIAN_POINT ( 'NONE',  ( 3.700970219173721357E-14, 1.874699728327320094E-32, 10.59999999999999964 ) ) ;
#92 = DATE_AND_TIME ( #173, #161 ) ;
#93 = CC_DESIGN_APPROVAL ( #158, ( #288 ) ) ;
#94 = DIRECTION ( 'NONE',  ( 0.0000000000000000000, -1.000000000000000000, 0.0000000000000000000 ) ) ;
#95 = CARTESIAN_POINT ( 'NONE',  ( 5.272136821653132629E-14, -1.851887852001744601E-15, 15.10000000000000142 ) ) ;
#96 = CC_DESIGN_DATE_AND_TIME_ASSIGNMENT ( #303, #109, ( #288 ) ) ;
#97 = VERTEX_POINT ( 'NONE', #295 ) ;
#98 = EDGE_LOOP ( 'NONE', ( #76 ) ) ;
#99 = DATE_AND_TIME ( #283, #293 ) ;
#100 = AXIS2_PLACEMENT_3D ( 'NONE', #292, #261, #287 ) ;
#101 = ORIENTED_EDGE ( 'NONE', *, *, #126, .F. ) ;
#102 = APPROVAL_DATE_TIME ( #99, #158 ) ;
#103 = EDGE_LOOP ( 'NONE', ( #180 ) ) ;
#104 = DIRECTION ( 'NONE',  ( 0.0000000000000000000, -1.000000000000000000, 0.0000000000000000000 ) ) ;
#105 = CYLINDRICAL_SURFACE ( 'NONE', #24, 2.500000000000000444 ) ;
#106 = CARTESIAN_POINT ( 'NONE',  ( 2.206616206148860281E-13, -7.739811470984101976E-15, 63.20000000000000284 ) ) ;
#107 = ADVANCED_FACE ( 'NONE', ( #309 ), #4, .F. ) ;
#108 = CARTESIAN_POINT ( 'NONE',  ( 0.0000000000000000000, 0.0000000000000000000, 0.0000000000000000000 ) ) ;
#109 = DATE_TIME_ROLE ( 'creation_date' ) ;
#110 = AXIS2_PLACEMENT_3D ( 'NONE', #42, #13, #115 ) ;
#111 = DIRECTION ( 'NONE',  ( 0.0000000000000000000, 1.000000000000000000, 0.0000000000000000000 ) ) ;
#112 = CIRCLE ( 'NONE', #68, 3.950000000000000178 ) ;
#113 = DIRECTION ( 'NONE',  ( -4.273924207943998360E-31, -1.000000000000000000, -1.224100544486976698E-16 ) ) ;
#114 = VERTEX_POINT ( 'NONE', #311 ) ;
#115 = DIRECTION ( 'NONE',  ( 0.0000000000000000000, -1.000000000000000000, 0.0000000000000000000 ) ) ;
#116 = SHAPE_DEFINITION_REPRESENTATION ( #217, #285 ) ;
#117 = APPLICATION_CONTEXT ( 'configuration controlled 3d designs of mechanical parts and assemblies' ) ;
#118 = PLANE ( 'NONE',  #46 ) ;
#119 = VERTEX_POINT ( 'NONE', #223 ) ;
#120 = DIRECTION ( 'NONE',  ( 0.0000000000000000000, 0.0000000000000000000, 1.000000000000000000 ) ) ;
#121 = CARTESIAN_POINT ( 'NONE',  ( 5.272136821653132629E-14, -1.851887852001744601E-15, 15.10000000000000142 ) ) ;
#122 = CC_DESIGN_SECURITY_CLASSIFICATION ( #157, ( #210 ) ) ;
#123 = PERSON_AND_ORGANIZATION_ROLE ( 'design_owner' ) ;
#124 = DIRECTION ( 'NONE',  ( 0.0000000000000000000, -1.000000000000000000, 0.0000000000000000000 ) ) ;
#125 = APPROVAL_STATUS ( 'not_yet_approved' ) ;
#126 = EDGE_CURVE ( 'NONE', #267, #267, #204, .T. ) ;
#127 = CARTESIAN_POINT ( 'NONE',  ( 6.668357721492481847E-14, -2.341397775684664360E-15, 19.09893559305682231 ) ) ;
#128 = EDGE_LOOP ( 'NONE', ( #77 ) ) ;
#129 = EDGE_CURVE ( 'NONE', #97, #97, #264, .T. ) ;
#130 = AXIS2_PLACEMENT_3D ( 'NONE', #147, #321, #260 ) ;
#131 = ORIENTED_EDGE ( 'NONE', *, *, #126, .T. ) ;
#132 = EDGE_LOOP ( 'NONE', ( #250 ) ) ;
#133 = EDGE_LOOP ( 'NONE', ( #131 ) ) ;
#134 = AXIS2_PLACEMENT_3D ( 'NONE', #89, #252, #33 ) ;
#135 = FACE_BOUND ( 'NONE', #202, .T. ) ;
#136 = FACE_OUTER_BOUND ( 'NONE', #28, .T. ) ;
#137 = CLOSED_SHELL ( 'NONE', ( #7, #216, #193, #316, #306, #63, #272, #152, #165, #222 ) ) ;
#138 = FACE_BOUND ( 'NONE', #103, .T. ) ;
#139 = APPROVAL_DATE_TIME ( #232, #1 ) ;
#140 = DIRECTION ( 'NONE',  ( 3.491481338843133355E-15, -1.224646799147353207E-16, 1.000000000000000000 ) ) ;
#141 = MANIFOLD_SOLID_BREP ( 'Corps-Déplacer/Copier4[2]', #282 ) ;
#142 = FACE_BOUND ( 'NONE', #299, .T. ) ;
#143 = CC_DESIGN_PERSON_AND_ORGANIZATION_ASSIGNMENT ( #21, #123, ( #194 ) ) ;
#144 = FACE_BOUND ( 'NONE', #274, .T. ) ;
#145 = VERTEX_POINT ( 'NONE', #239 ) ;
#146 = AXIS2_PLACEMENT_3D ( 'NONE', #71, #199, #289 ) ;
#147 = CARTESIAN_POINT ( 'NONE',  ( 3.700970219173720726E-14, -1.301042606982604532E-15, 10.59999999999999787 ) ) ;
#148 = CARTESIAN_POINT ( 'NONE',  ( 0.0000000000000000000, 0.0000000000000000000, 0.0000000000000000000 ) ) ;
#149 = DIRECTION ( 'NONE',  ( -4.273924207943998360E-31, -1.000000000000000000, -1.224100544486976698E-16 ) ) ;
#150 = MECHANICAL_CONTEXT ( 'NONE', #319, 'mechanical' ) ;
#151 = CONICAL_SURFACE ( 'NONE', #310, 3.099999999999999645, 0.2094395102393128982 ) ;
#152 = ADVANCED_FACE ( 'NONE', ( #135, #57 ), #229, .T. ) ;
#153 = ORIENTED_EDGE ( 'NONE', *, *, #9, .T. ) ;
#154 = SECURITY_CLASSIFICATION_LEVEL ( 'unclassified' ) ;
#155 = ORIENTED_EDGE ( 'NONE', *, *, #18, .F. ) ;
#156 = PERSON_AND_ORGANIZATION_ROLE ( 'creator' ) ;
#157 = SECURITY_CLASSIFICATION ( '', '', #154 ) ;
#158 = APPROVAL ( #125, 'UNSPECIFIED' ) ;
#159 = EDGE_LOOP ( 'NONE', ( #153 ) ) ;
#160 = PERSON ( 'UNSPECIFIED', 'UNSPECIFIED', 'UNSPECIFIED', ('UNSPECIFIED'), ('UNSPECIFIED'), ('UNSPECIFIED') ) ;
#161 = LOCAL_TIME ( 11, 26, 3.000000000000000000, #171 ) ;
#162 = DIRECTION ( 'NONE',  ( 4.273924207943998360E-31, 1.000000000000000000, 1.224100544486976698E-16 ) ) ;
#163 = CARTESIAN_POINT ( 'NONE',  ( -8.551702076470493195E-31, 2.999533309458106118E-32, -2.449304821232128456E-16 ) ) ;
#164 = CC_DESIGN_PERSON_AND_ORGANIZATION_ASSIGNMENT ( #208, #156, ( #288 ) ) ;
#165 = ADVANCED_FACE ( 'NONE', ( #189 ), #34, .F. ) ;
#166 = PLANE ( 'NONE',  #187 ) ;
#167 = PERSON_AND_ORGANIZATION ( #160, #255 ) ;
#168 = CIRCLE ( 'NONE', #134, 4.000000000000000888 ) ;
#169 = UNCERTAINTY_MEASURE_WITH_UNIT (LENGTH_MEASURE( 1.000000000000000082E-05 ), #317, 'distance_accuracy_value', 'NONE');
#170 = DIRECTION ( 'NONE',  ( 3.491481338843133355E-15, -1.224100544486976698E-16, 1.000000000000000000 ) ) ;
#171 = COORDINATED_UNIVERSAL_TIME_OFFSET ( 1, 0, .AHEAD. ) ;
#172 = FACE_OUTER_BOUND ( 'NONE', #207, .T. ) ;
#173 = CALENDAR_DATE ( 2021, 13, 12 ) ;
#174 = AXIS2_PLACEMENT_3D ( 'NONE', #148, #120, #294 ) ;
#175 = PLANE ( 'NONE',  #84 ) ;
#176 = CC_DESIGN_PERSON_AND_ORGANIZATION_ASSIGNMENT ( #236, #275, ( #157 ) ) ;
#177 = ORIENTED_EDGE ( 'NONE', *, *, #296, .T. ) ;
#178 = AXIS2_PLACEMENT_3D ( 'NONE', #91, #218, #315 ) ;
#179 = AXIS2_PLACEMENT_3D ( 'NONE', #182, #273, #230 ) ;
#180 = ORIENTED_EDGE ( 'NONE', *, *, #36, .T. ) ;
#181 = COORDINATED_UNIVERSAL_TIME_OFFSET ( 1, 0, .AHEAD. ) ;
#182 = CARTESIAN_POINT ( 'NONE',  ( 8.065321892727638682E-14, -2.831168287591325761E-15, 23.10000000000000142 ) ) ;
#183 = EDGE_LOOP ( 'NONE', ( #247 ) ) ;
#184 = PERSON_AND_ORGANIZATION_ROLE ( 'design_supplier' ) ;
#185 = FACE_OUTER_BOUND ( 'NONE', #133, .T. ) ;
#186 = FACE_OUTER_BOUND ( 'NONE', #249, .T. ) ;
#187 = AXIS2_PLACEMENT_3D ( 'NONE', #254, #212, #312 ) ;
#188 = DIRECTION ( 'NONE',  ( -4.275831445896958607E-31, -1.000000000000000000, -1.224646799147353207E-16 ) ) ;
#189 = FACE_OUTER_BOUND ( 'NONE', #98, .T. ) ;
#190 =( GEOMETRIC_REPRESENTATION_CONTEXT ( 3 ) GLOBAL_UNCERTAINTY_ASSIGNED_CONTEXT ( ( #169 ) ) GLOBAL_UNIT_ASSIGNED_CONTEXT ( ( #317, #37, #19 ) ) REPRESENTATION_CONTEXT ( 'NONE', 'WORKASPACE' ) );
#191 = DIRECTION ( 'NONE',  ( 4.275831445896958607E-31, 1.000000000000000000, 1.224646799147353207E-16 ) ) ;
#192 = COORDINATED_UNIVERSAL_TIME_OFFSET ( 1, 0, .AHEAD. ) ;
#193 = ADVANCED_FACE ( 'NONE', ( #136, #144 ), #175, .F. ) ;
#194 = PRODUCT ( '388818', '388818', '', ( #150 ) ) ;
#195 = PLANE ( 'NONE',  #178 ) ;
#196 = FACE_OUTER_BOUND ( 'NONE', #233, .T. ) ;
#197 = FACE_OUTER_BOUND ( 'NONE', #269, .T. ) ;
#198 = CC_DESIGN_DATE_AND_TIME_ASSIGNMENT ( #281, #64, ( #157 ) ) ;
#199 = DIRECTION ( 'NONE',  ( 3.491481338843133355E-15, -1.224100544486976698E-16, 1.000000000000000000 ) ) ;
#200 = CC_DESIGN_APPROVAL ( #60, ( #157 ) ) ;
#201 = CARTESIAN_POINT ( 'NONE',  ( 3.700970219173721357E-14, 2.499999999999998668, 10.59999999999999964 ) ) ;
#202 = EDGE_LOOP ( 'NONE', ( #155 ) ) ;
#203 = ORIENTED_EDGE ( 'NONE', *, *, #296, .F. ) ;
#204 = CIRCLE ( 'NONE', #55, 2.500000000000000000 ) ;
#205 = ORIENTED_EDGE ( 'NONE', *, *, #248, .T. ) ;
#206 = CARTESIAN_POINT ( 'NONE',  ( 5.272136821653132629E-14, -1.851887852001744601E-15, 15.10000000000000142 ) ) ;
#207 = EDGE_LOOP ( 'NONE', ( #305 ) ) ;
#208 = PERSON_AND_ORGANIZATION ( #160, #255 ) ;
#209 = DIRECTION ( 'NONE',  ( 3.491481338843133355E-15, -1.224100544486976698E-16, 1.000000000000000000 ) ) ;
#210 = PRODUCT_DEFINITION_FORMATION_WITH_SPECIFIED_SOURCE ( 'ANY', '', #194, .NOT_KNOWN. ) ;
#211 = DIRECTION ( 'NONE',  ( 3.491481338843133355E-15, -1.224100544486976698E-16, 1.000000000000000000 ) ) ;
#212 = DIRECTION ( 'NONE',  ( 3.491481338843133355E-15, -1.224100544486976698E-16, 1.000000000000000000 ) ) ;
#213 = COORDINATED_UNIVERSAL_TIME_OFFSET ( 1, 0, .AHEAD. ) ;
#214 = AXIS2_PLACEMENT_3D ( 'NONE', #163, #88, #215 ) ;
#215 = DIRECTION ( 'NONE',  ( 4.275831445896959482E-31, 1.000000000000000000, 1.224646799147353207E-16 ) ) ;
#216 = ADVANCED_FACE ( 'NONE', ( #15, #290 ), #35, .F. ) ;
#217 = PRODUCT_DEFINITION_SHAPE ( 'NONE', 'NONE',  #288 ) ;
#218 = DIRECTION ( 'NONE',  ( 3.491481338843133355E-15, -1.224646799147353207E-16, 1.000000000000000000 ) ) ;
#219 = FACE_OUTER_BOUND ( 'NONE', #30, .T. ) ;
#220 = CARTESIAN_POINT ( 'NONE',  ( 3.700970219173721357E-14, 2.499999999999998668, 10.59999999999999964 ) ) ;
#221 = PRODUCT_RELATED_PRODUCT_CATEGORY ( 'detail', '', ( #194 ) ) ;
#222 = ADVANCED_FACE ( 'NONE', ( #318 ), #118, .F. ) ;
#223 = CARTESIAN_POINT ( 'NONE',  ( 5.272136821653132629E-14, -3.100000000000000977, 15.10000000000000142 ) ) ;
#224 = DIRECTION ( 'NONE',  ( 3.491481338843133355E-15, -1.224100544486976698E-16, 1.000000000000000000 ) ) ;
#225 = CIRCLE ( 'NONE', #100, 2.500000000000000444 ) ;
#226 = APPLICATION_PROTOCOL_DEFINITION ( 'international standard', 'config_control_design', 1994, #117 ) ;
#227 = EDGE_CURVE ( 'NONE', #241, #241, #62, .T. ) ;
#228 = EDGE_LOOP ( 'NONE', ( #205 ) ) ;
#229 = CONICAL_SURFACE ( 'NONE', #280, 4.000000000000000888, 0.7853981633974512766 ) ;
#230 = DIRECTION ( 'NONE',  ( 0.0000000000000000000, -1.000000000000000000, 0.0000000000000000000 ) ) ;
#231 = EDGE_LOOP ( 'NONE', ( #79 ) ) ;
#232 = DATE_AND_TIME ( #83, #298 ) ;
#233 = EDGE_LOOP ( 'NONE', ( #101 ) ) ;
#234 = AXIS2_PLACEMENT_3D ( 'NONE', #206, #304, #104 ) ;
#235 = APPROVAL_ROLE ( '' ) ;
#236 = PERSON_AND_ORGANIZATION ( #160, #255 ) ;
#237 = CARTESIAN_POINT ( 'NONE',  ( 5.272136821653132629E-14, -2.501807066372220500, 15.10000000000000142 ) ) ;
#238 = CARTESIAN_POINT ( 'NONE',  ( 3.700970219173721357E-14, -1.298125607096194385E-15, 10.59999999999999964 ) ) ;
#239 = CARTESIAN_POINT ( 'NONE',  ( 6.668357721492481847E-14, -3.950000000000002842, 19.09893559305682231 ) ) ;
#240 = DIRECTION ( 'NONE',  ( 3.491481338843133355E-15, -1.224100544486976698E-16, 1.000000000000000000 ) ) ;
#241 = VERTEX_POINT ( 'NONE', #237 ) ;
#242 = AXIS2_PLACEMENT_3D ( 'NONE', #95, #224, #320 ) ;
#243 = VERTEX_POINT ( 'NONE', #284 ) ;
#244 = FACE_OUTER_BOUND ( 'NONE', #128, .T. ) ;
#245 = MANIFOLD_SOLID_BREP ( 'Corps-Déplacer/Copier4[1]', #137 ) ;
#246 = CIRCLE ( 'NONE', #130, 2.500000000000000000 ) ;
#247 = ORIENTED_EDGE ( 'NONE', *, *, #70, .T. ) ;
#248 = EDGE_CURVE ( 'NONE', #90, #90, #246, .T. ) ;
#249 = EDGE_LOOP ( 'NONE', ( #203 ) ) ;
#250 = ORIENTED_EDGE ( 'NONE', *, *, #9, .F. ) ;
#251 = AXIS2_PLACEMENT_3D ( 'NONE', #16, #50, #23 ) ;
#252 = DIRECTION ( 'NONE',  ( 3.491481338843133355E-15, -1.224100544486976698E-16, 1.000000000000000000 ) ) ;
#253 = EDGE_LOOP ( 'NONE', ( #177 ) ) ;
#254 = CARTESIAN_POINT ( 'NONE',  ( 8.065321892727638682E-14, 3.999999999999992450, 23.10000000000000142 ) ) ;
#255 = ORGANIZATION ( 'UNSPECIFIED', 'UNSPECIFIED', '' ) ;
#256 = CYLINDRICAL_SURFACE ( 'NONE', #40, 2.499999999999999556 ) ;
#257 = PERSON_AND_ORGANIZATION ( #160, #255 ) ;
#258 = APPROVAL_ROLE ( '' ) ;
#259 = CC_DESIGN_APPROVAL ( #1, ( #210 ) ) ;
#260 = DIRECTION ( 'NONE',  ( 0.0000000000000000000, -1.000000000000000000, 0.0000000000000000000 ) ) ;
#261 = DIRECTION ( 'NONE',  ( 3.491481338843133355E-15, -1.224100544486976698E-16, 1.000000000000000000 ) ) ;
#262 = VERTEX_POINT ( 'NONE', #44 ) ;
#263 = CYLINDRICAL_SURFACE ( 'NONE', #110, 3.950000000000000178 ) ;
#264 = CIRCLE ( 'NONE', #314, 3.999999999999994671 ) ;
#265 = DIRECTION ( 'NONE',  ( 3.491481338843133355E-15, -1.224100544486976698E-16, 1.000000000000000000 ) ) ;
#266 = APPLICATION_PROTOCOL_DEFINITION ( 'international standard', 'config_control_design', 1994, #319 ) ;
#267 = VERTEX_POINT ( 'NONE', #201 ) ;
#268 = ORIENTED_EDGE ( 'NONE', *, *, #227, .F. ) ;
#269 = EDGE_LOOP ( 'NONE', ( #26 ) ) ;
#270 = APPROVAL_ROLE ( '' ) ;
#271 = CC_DESIGN_PERSON_AND_ORGANIZATION_ASSIGNMENT ( #53, #66, ( #210 ) ) ;
#272 = ADVANCED_FACE ( 'NONE', ( #197, #244 ), #20, .T. ) ;
#273 = DIRECTION ( 'NONE',  ( 3.491481338843133355E-15, -1.224100544486976698E-16, 1.000000000000000000 ) ) ;
#274 = EDGE_LOOP ( 'NONE', ( #56 ) ) ;
#275 = PERSON_AND_ORGANIZATION_ROLE ( 'classification_officer' ) ;
#276 = FACE_OUTER_BOUND ( 'NONE', #228, .T. ) ;
#277 = DIRECTION ( 'NONE',  ( 0.0000000000000000000, -1.000000000000000000, 0.0000000000000000000 ) ) ;
#278 = DIRECTION ( 'NONE',  ( -3.491481338843133355E-15, 1.224646799147353207E-16, -1.000000000000000000 ) ) ;
#279 = CARTESIAN_POINT ( 'NONE',  ( 2.234548056859605347E-13, -7.837739514543060526E-15, 64.00000000000000000 ) ) ;
#280 = AXIS2_PLACEMENT_3D ( 'NONE', #106, #86, #111 ) ;
#281 = DATE_AND_TIME ( #54, #10 ) ;
#282 = CLOSED_SHELL ( 'NONE', ( #107, #51, #300 ) ) ;
#283 = CALENDAR_DATE ( 2021, 13, 12 ) ;
#284 = CARTESIAN_POINT ( 'NONE',  ( 2.137876538271898504E-31, 2.499999999999998668, 6.123121766362532060E-17 ) ) ;
#285 = ADVANCED_BREP_SHAPE_REPRESENTATION ( '388818', ( #245, #141, #174 ), #190 ) ;
#286 = AXIS2_PLACEMENT_3D ( 'NONE', #39, #140, #188 ) ;
#287 = DIRECTION ( 'NONE',  ( 0.0000000000000000000, -1.000000000000000000, 0.0000000000000000000 ) ) ;
#288 = PRODUCT_DEFINITION ( 'UNKNOWN', '', #210, #43 ) ;
#289 = DIRECTION ( 'NONE',  ( 0.0000000000000000000, -1.000000000000000000, 0.0000000000000000000 ) ) ;
#290 = FACE_OUTER_BOUND ( 'NONE', #253, .T. ) ;
#291 = CC_DESIGN_PERSON_AND_ORGANIZATION_ASSIGNMENT ( #167, #184, ( #210 ) ) ;
#292 = CARTESIAN_POINT ( 'NONE',  ( 5.242459230272965017E-14, -1.841482997373604318E-15, 15.01500000000000057 ) ) ;
#293 = LOCAL_TIME ( 11, 26, 3.000000000000000000, #181 ) ;
#294 = DIRECTION ( 'NONE',  ( 1.000000000000000000, 0.0000000000000000000, 0.0000000000000000000 ) ) ;
#295 = CARTESIAN_POINT ( 'NONE',  ( 8.065321892727638682E-14, -3.999999999999997335, 23.10000000000000142 ) ) ;
#296 = EDGE_CURVE ( 'NONE', #114, #114, #225, .T. ) ;
#297 = EDGE_LOOP ( 'NONE', ( #58 ) ) ;
#298 = LOCAL_TIME ( 11, 26, 3.000000000000000000, #192 ) ;
#299 = EDGE_LOOP ( 'NONE', ( #82 ) ) ;
#300 = ADVANCED_FACE ( 'NONE', ( #196 ), #195, .T. ) ;
#301 = PERSON_AND_ORGANIZATION ( #160, #255 ) ;
#302 = ORIENTED_EDGE ( 'NONE', *, *, #248, .F. ) ;
#303 = DATE_AND_TIME ( #29, #22 ) ;
#304 = DIRECTION ( 'NONE',  ( 3.491481338843133355E-15, -1.224100544486976698E-16, 1.000000000000000000 ) ) ;
#305 = ORIENTED_EDGE ( 'NONE', *, *, #32, .T. ) ;
#306 = ADVANCED_FACE ( 'NONE', ( #69, #172 ), #263, .T. ) ;
#307 = DIRECTION ( 'NONE',  ( 0.0000000000000000000, -1.000000000000000000, 0.0000000000000000000 ) ) ;
#308 = CIRCLE ( 'NONE', #179, 3.950000000000000178 ) ;
#309 = FACE_OUTER_BOUND ( 'NONE', #159, .T. ) ;
#310 = AXIS2_PLACEMENT_3D ( 'NONE', #121, #170, #94 ) ;
#311 = CARTESIAN_POINT ( 'NONE',  ( 5.242459230272965017E-14, -2.500000000000002220, 15.01500000000000057 ) ) ;
#312 = DIRECTION ( 'NONE',  ( -4.273924207943998360E-31, -1.000000000000000000, -1.224100544486976698E-16 ) ) ;
#313 = CARTESIAN_POINT ( 'NONE',  ( 5.242459230272965017E-14, -1.734723475976807094E-15, 15.01500000000000057 ) ) ;
#314 = AXIS2_PLACEMENT_3D ( 'NONE', #11, #211, #277 ) ;
#315 = DIRECTION ( 'NONE',  ( -4.275831445896958607E-31, -1.000000000000000000, -1.224646799147353207E-16 ) ) ;
#316 = ADVANCED_FACE ( 'NONE', ( #219, #142 ), #151, .T. ) ;
#317 =( LENGTH_UNIT ( ) NAMED_UNIT ( * ) SI_UNIT ( .MILLI., .METRE. ) );
#318 = FACE_OUTER_BOUND ( 'NONE', #3, .T. ) ;
#319 = APPLICATION_CONTEXT ( 'configuration controlled 3d designs of mechanical parts and assemblies' ) ;
#320 = DIRECTION ( 'NONE',  ( 0.0000000000000000000, -1.000000000000000000, 0.0000000000000000000 ) ) ;
#321 = DIRECTION ( 'NONE',  ( 3.491481338843133355E-15, -1.224100544486976698E-16, 1.000000000000000000 ) ) ;
#322 = APPROVAL_PERSON_ORGANIZATION ( #301, #1, #270 ) ;
#323 = PERSON_AND_ORGANIZATION ( #160, #255 ) ;
ENDSEC;
END-ISO-10303-21;
