ISO-10303-21;
HEADER;
FILE_DESCRIPTION (( 'STEP AP203' ),
    '1' );
FILE_NAME ('388817.step',
    '2021-12-13T10:26:02',
    ( '' ),
    ( '' ),
    'SwSTEP 2.0',
    'SolidWorks 2019',
    '' );
FILE_SCHEMA (( 'CONFIG_CONTROL_DESIGN' ));
ENDSEC;

DATA;
#1 = EDGE_CURVE ( 'NONE', #20, #20, #281, .T. ) ;
#2 = PERSON_AND_ORGANIZATION_ROLE ( 'design_owner' ) ;
#3 = LOCAL_TIME ( 11, 26, 2.000000000000000000, #150 ) ;
#4 = ADVANCED_FACE ( 'NONE', ( #149, #195 ), #131, .T. ) ;
#5 = CARTESIAN_POINT ( 'NONE',  ( 7.716173758843325346E-14, 3.999999999999993339, 22.10000000000000142 ) ) ;
#6 = DATE_AND_TIME ( #146, #120 ) ;
#7 = DIRECTION ( 'NONE',  ( -3.491481338843133355E-15, 1.216853575145505482E-16, -1.000000000000000000 ) ) ;
#8 = CALENDAR_DATE ( 2021, 13, 12 ) ;
#9 = EDGE_CURVE ( 'NONE', #276, #276, #66, .T. ) ;
#10 = CARTESIAN_POINT ( 'NONE',  ( 2.206616206148860281E-13, -7.740391228531419575E-15, 63.20000000000000284 ) ) ;
#11 = DATE_AND_TIME ( #96, #3 ) ;
#12 = CARTESIAN_POINT ( 'NONE',  ( 2.967759138016663352E-14, -1.084202172485504434E-15, 8.500000000000000000 ) ) ;
#13 = CARTESIAN_POINT ( 'NONE',  ( 2.967759138016663352E-14, -1.040949779275250140E-15, 8.500000000000000000 ) ) ;
#14 = DIRECTION ( 'NONE',  ( 0.0000000000000000000, 1.000000000000000000, 0.0000000000000000000 ) ) ;
#15 = EDGE_LOOP ( 'NONE', ( #28 ) ) ;
#16 = DIRECTION ( 'NONE',  ( 0.0000000000000000000, 1.000000000000000000, 0.0000000000000000000 ) ) ;
#17 = CIRCLE ( 'NONE', #266, 3.950000000000000178 ) ;
#18 = DIRECTION ( 'NONE',  ( 0.0000000000000000000, 1.000000000000000000, 0.0000000000000000000 ) ) ;
#19 = DIRECTION ( 'NONE',  ( 0.0000000000000000000, 1.000000000000000000, 0.0000000000000000000 ) ) ;
#20 = VERTEX_POINT ( 'NONE', #114 ) ;
#21 = ORIENTED_EDGE ( 'NONE', *, *, #277, .F. ) ;
#22 = COORDINATED_UNIVERSAL_TIME_OFFSET ( 1, 0, .AHEAD. ) ;
#23 = EDGE_LOOP ( 'NONE', ( #260 ) ) ;
#24 = PERSON_AND_ORGANIZATION ( #219, #153 ) ;
#25 = ORIENTED_EDGE ( 'NONE', *, *, #286, .F. ) ;
#26 = MANIFOLD_SOLID_BREP ( 'Corps-Déplacer/Copier3[2]', #288 ) ;
#27 = VERTEX_POINT ( 'NONE', #46 ) ;
#28 = ORIENTED_EDGE ( 'NONE', *, *, #1, .F. ) ;
#29 = CC_DESIGN_SECURITY_CLASSIFICATION ( #57, ( #92 ) ) ;
#30 = CC_DESIGN_PERSON_AND_ORGANIZATION_ASSIGNMENT ( #126, #267, ( #92 ) ) ;
#31 =( NAMED_UNIT ( * ) PLANE_ANGLE_UNIT ( ) SI_UNIT ( $, .RADIAN. ) );
#32 = PLANE ( 'NONE',  #187 ) ;
#33 = VERTEX_POINT ( 'NONE', #138 ) ;
#34 = CARTESIAN_POINT ( 'NONE',  ( 7.716173758843325346E-14, -2.739123034683391929E-15, 22.10000000000000142 ) ) ;
#35 = CC_DESIGN_PERSON_AND_ORGANIZATION_ASSIGNMENT ( #240, #221, ( #92 ) ) ;
#36 = AXIS2_PLACEMENT_3D ( 'NONE', #12, #104, #19 ) ;
#37 = DIRECTION ( 'NONE',  ( 3.491481338843133355E-15, -1.216853575145505482E-16, 1.000000000000000000 ) ) ;
#38 = PERSON_AND_ORGANIZATION ( #219, #153 ) ;
#39 = AXIS2_PLACEMENT_3D ( 'NONE', #13, #135, #86 ) ;
#40 = FACE_OUTER_BOUND ( 'NONE', #190, .T. ) ;
#41 = FACE_OUTER_BOUND ( 'NONE', #113, .T. ) ;
#42 = DIRECTION ( 'NONE',  ( -3.491481338843133355E-15, 1.216853575145505482E-16, -1.000000000000000000 ) ) ;
#43 = AXIS2_PLACEMENT_3D ( 'NONE', #182, #279, #16 ) ;
#44 = CARTESIAN_POINT ( 'NONE',  ( 2.967759138016663352E-14, -1.084202172485504434E-15, 8.500000000000000000 ) ) ;
#45 = ORIENTED_EDGE ( 'NONE', *, *, #9, .T. ) ;
#46 = CARTESIAN_POINT ( 'NONE',  ( 4.189777606611760026E-14, 2.649999999999998579, 12.00000000000000000 ) ) ;
#47 = AXIS2_PLACEMENT_3D ( 'NONE', #55, #179, #63 ) ;
#48 = CC_DESIGN_DATE_AND_TIME_ASSIGNMENT ( #81, #291, ( #88 ) ) ;
#49 = DATE_AND_TIME ( #117, #253 ) ;
#50 = DIRECTION ( 'NONE',  ( 3.491481338843133355E-15, -1.224646799147353207E-16, 1.000000000000000000 ) ) ;
#51 = AXIS2_PLACEMENT_3D ( 'NONE', #143, #263, #220 ) ;
#52 = APPROVAL_PERSON_ORGANIZATION ( #148, #280, #295 ) ;
#53 = DIRECTION ( 'NONE',  ( 0.0000000000000000000, 1.000000000000000000, 0.0000000000000000000 ) ) ;
#54 = EDGE_CURVE ( 'NONE', #209, #209, #170, .T. ) ;
#55 = CARTESIAN_POINT ( 'NONE',  ( 0.0000000000000000000, 0.0000000000000000000, 0.0000000000000000000 ) ) ;
#56 = PERSON_AND_ORGANIZATION ( #219, #153 ) ;
#57 = SECURITY_CLASSIFICATION ( '', '', #83 ) ;
#58 = EDGE_LOOP ( 'NONE', ( #76 ) ) ;
#59 = FACE_OUTER_BOUND ( 'NONE', #140, .T. ) ;
#60 = CYLINDRICAL_SURFACE ( 'NONE', #36, 2.000000000000000000 ) ;
#61 = CARTESIAN_POINT ( 'NONE',  ( 2.967759138016663352E-14, 1.999999999999999112, 8.500000000000000000 ) ) ;
#62 = EDGE_CURVE ( 'NONE', #274, #274, #147, .T. ) ;
#63 = DIRECTION ( 'NONE',  ( 4.275831445896958607E-31, 1.000000000000000000, 1.224646799147353207E-16 ) ) ;
#64 = CARTESIAN_POINT ( 'NONE',  ( 7.716173758843325346E-14, 3.999999999999993339, 22.10000000000000142 ) ) ;
#65 = FACE_OUTER_BOUND ( 'NONE', #282, .T. ) ;
#66 = CIRCLE ( 'NONE', #272, 4.000000000000000888 ) ;
#67 = CARTESIAN_POINT ( 'NONE',  ( 7.716173758843325346E-14, -2.739123034683391929E-15, 22.10000000000000142 ) ) ;
#68 = ADVANCED_FACE ( 'NONE', ( #84 ), #173, .T. ) ;
#69 = PRODUCT ( '388817', '388817', '', ( #93 ) ) ;
#70 = APPLICATION_PROTOCOL_DEFINITION ( 'international standard', 'config_control_design', 1994, #166 ) ;
#71 = CIRCLE ( 'NONE', #39, 2.000000000000000000 ) ;
#72 =( LENGTH_UNIT ( ) NAMED_UNIT ( * ) SI_UNIT ( .MILLI., .METRE. ) );
#73 = APPROVAL_PERSON_ORGANIZATION ( #38, #241, #102 ) ;
#74 = EDGE_LOOP ( 'NONE', ( #184 ) ) ;
#75 = CALENDAR_DATE ( 2021, 13, 12 ) ;
#76 = ORIENTED_EDGE ( 'NONE', *, *, #1, .T. ) ;
#77 = EDGE_LOOP ( 'NONE', ( #198 ) ) ;
#78 = AXIS2_PLACEMENT_3D ( 'NONE', #211, #192, #287 ) ;
#79 = APPROVAL_STATUS ( 'not_yet_approved' ) ;
#80 = FACE_OUTER_BOUND ( 'NONE', #23, .T. ) ;
#81 = DATE_AND_TIME ( #75, #188 ) ;
#82 = EDGE_LOOP ( 'NONE', ( #142 ) ) ;
#83 = SECURITY_CLASSIFICATION_LEVEL ( 'unclassified' ) ;
#84 = FACE_OUTER_BOUND ( 'NONE', #169, .T. ) ;
#85 = PLANE ( 'NONE',  #204 ) ;
#86 = DIRECTION ( 'NONE',  ( 0.0000000000000000000, 1.000000000000000000, 0.0000000000000000000 ) ) ;
#87 = DIRECTION ( 'NONE',  ( -3.491481338843133355E-15, 1.216853575145505482E-16, -1.000000000000000000 ) ) ;
#88 = PRODUCT_DEFINITION ( 'UNKNOWN', '', #92, #178 ) ;
#89 = DIRECTION ( 'NONE',  ( 0.0000000000000000000, 1.000000000000000000, 0.0000000000000000000 ) ) ;
#90 = CC_DESIGN_PERSON_AND_ORGANIZATION_ASSIGNMENT ( #262, #2, ( #69 ) ) ;
#91 = PERSON_AND_ORGANIZATION_ROLE ( 'creator' ) ;
#92 = PRODUCT_DEFINITION_FORMATION_WITH_SPECIFIED_SOURCE ( 'ANY', '', #69, .NOT_KNOWN. ) ;
#93 = MECHANICAL_CONTEXT ( 'NONE', #229, 'mechanical' ) ;
#94 = EDGE_LOOP ( 'NONE', ( #215 ) ) ;
#95 = DIRECTION ( 'NONE',  ( -3.491481338843133355E-15, 1.216853575145505482E-16, -1.000000000000000000 ) ) ;
#96 = CALENDAR_DATE ( 2021, 13, 12 ) ;
#97 = CC_DESIGN_PERSON_AND_ORGANIZATION_ASSIGNMENT ( #56, #268, ( #57 ) ) ;
#98 = AXIS2_PLACEMENT_3D ( 'NONE', #238, #37, #128 ) ;
#99 = DIRECTION ( 'NONE',  ( -3.491481338843133355E-15, 1.216853575145505482E-16, -1.000000000000000000 ) ) ;
#100 = CC_DESIGN_PERSON_AND_ORGANIZATION_ASSIGNMENT ( #24, #91, ( #88 ) ) ;
#101 = COORDINATED_UNIVERSAL_TIME_OFFSET ( 1, 0, .AHEAD. ) ;
#102 = APPROVAL_ROLE ( '' ) ;
#103 = DIRECTION ( 'NONE',  ( 0.0000000000000000000, 1.000000000000000000, 0.0000000000000000000 ) ) ;
#104 = DIRECTION ( 'NONE',  ( -3.491481338843133355E-15, 1.216853575145505482E-16, -1.000000000000000000 ) ) ;
#105 = ADVANCED_FACE ( 'NONE', ( #237, #124 ), #32, .T. ) ;
#106 = CARTESIAN_POINT ( 'NONE',  ( -3.206893176761007384E-31, 1.124826709063588931E-32, -9.184907108292261111E-17 ) ) ;
#107 = VERTEX_POINT ( 'NONE', #61 ) ;
#108 = CARTESIAN_POINT ( 'NONE',  ( 4.189777606611760026E-14, 2.649999999999998579, 12.00000000000000000 ) ) ;
#109 = CARTESIAN_POINT ( 'NONE',  ( 4.189777606611760026E-14, 1.999999999999999112, 12.00000000000000000 ) ) ;
#110 = AXIS2_PLACEMENT_3D ( 'NONE', #176, #42, #269 ) ;
#111 = PLANE ( 'NONE',  #265 ) ;
#112 = FACE_OUTER_BOUND ( 'NONE', #94, .T. ) ;
#113 = EDGE_LOOP ( 'NONE', ( #168 ) ) ;
#114 = CARTESIAN_POINT ( 'NONE',  ( 2.137876538271899380E-31, 1.999999999999999112, 6.123121766362532060E-17 ) ) ;
#115 = ORIENTED_EDGE ( 'NONE', *, *, #277, .T. ) ;
#116 = ORIENTED_EDGE ( 'NONE', *, *, #255, .T. ) ;
#117 = CALENDAR_DATE ( 2021, 13, 12 ) ;
#118 = ADVANCED_FACE ( 'NONE', ( #171, #80 ), #264, .T. ) ;
#119 = EDGE_LOOP ( 'NONE', ( #235 ) ) ;
#120 = LOCAL_TIME ( 11, 26, 2.000000000000000000, #175 ) ;
#121 = EDGE_LOOP ( 'NONE', ( #116 ) ) ;
#122 = APPROVAL_STATUS ( 'not_yet_approved' ) ;
#123 = APPROVAL_DATE_TIME ( #6, #241 ) ;
#124 = FACE_BOUND ( 'NONE', #151, .T. ) ;
#125 = AXIS2_PLACEMENT_3D ( 'NONE', #261, #50, #242 ) ;
#126 = PERSON_AND_ORGANIZATION ( #219, #153 ) ;
#127 = DIRECTION ( 'NONE',  ( -3.491481338843133355E-15, 1.216853575145505482E-16, -1.000000000000000000 ) ) ;
#128 = DIRECTION ( 'NONE',  ( 0.0000000000000000000, -1.000000000000000000, 0.0000000000000000000 ) ) ;
#129 = APPROVAL_STATUS ( 'not_yet_approved' ) ;
#130 = FACE_OUTER_BOUND ( 'NONE', #77, .T. ) ;
#131 = CONICAL_SURFACE ( 'NONE', #98, 2.649999999999999911, 0.2094395102393127317 ) ;
#132 = ADVANCED_FACE ( 'NONE', ( #130 ), #270, .T. ) ;
#133 = CARTESIAN_POINT ( 'NONE',  ( 2.234548056859605347E-13, -7.837739514543060526E-15, 64.00000000000000000 ) ) ;
#134 = DIRECTION ( 'NONE',  ( -4.248621549725082608E-31, -1.000000000000000000, -1.216853575145505482E-16 ) ) ;
#135 = DIRECTION ( 'NONE',  ( -3.491481338843133355E-15, 1.224646799147353207E-16, -1.000000000000000000 ) ) ;
#136 = AXIS2_PLACEMENT_3D ( 'NONE', #44, #137, #230 ) ;
#137 = DIRECTION ( 'NONE',  ( -3.491481338843133355E-15, 1.216853575145505482E-16, -1.000000000000000000 ) ) ;
#138 = CARTESIAN_POINT ( 'NONE',  ( 7.716173758843325346E-14, 3.949999999999998845, 22.10000000000000142 ) ) ;
#139 = APPROVAL_DATE_TIME ( #49, #157 ) ;
#140 = EDGE_LOOP ( 'NONE', ( #257 ) ) ;
#141 = ADVANCED_FACE ( 'NONE', ( #250, #223 ), #210, .T. ) ;
#142 = ORIENTED_EDGE ( 'NONE', *, *, #62, .T. ) ;
#143 = CARTESIAN_POINT ( 'NONE',  ( -6.413786353522014768E-31, 2.249653418127177862E-32, -1.836981421658452222E-16 ) ) ;
#144 = ORIENTED_EDGE ( 'NONE', *, *, #9, .F. ) ;
#145 = ADVANCED_FACE ( 'NONE', ( #112, #155 ), #60, .T. ) ;
#146 = CALENDAR_DATE ( 2021, 13, 12 ) ;
#147 = CIRCLE ( 'NONE', #222, 3.999999999999995559 ) ;
#148 = PERSON_AND_ORGANIZATION ( #219, #153 ) ;
#149 = FACE_OUTER_BOUND ( 'NONE', #121, .T. ) ;
#150 = COORDINATED_UNIVERSAL_TIME_OFFSET ( 1, 0, .AHEAD. ) ;
#151 = EDGE_LOOP ( 'NONE', ( #21 ) ) ;
#152 = CIRCLE ( 'NONE', #239, 3.200000000000001510 ) ;
#153 = ORGANIZATION ( 'UNSPECIFIED', 'UNSPECIFIED', '' ) ;
#154 = CARTESIAN_POINT ( 'NONE',  ( 2.206616206148860281E-13, 3.999999999999993339, 63.20000000000000284 ) ) ;
#155 = FACE_OUTER_BOUND ( 'NONE', #74, .T. ) ;
#156 = CARTESIAN_POINT ( 'NONE',  ( 2.967759138016663352E-14, 1.999999999999999112, 8.500000000000000000 ) ) ;
#157 = APPROVAL ( #122, 'UNSPECIFIED' ) ;
#158 = DIRECTION ( 'NONE',  ( -3.491481338843133355E-15, 1.216853575145505482E-16, -1.000000000000000000 ) ) ;
#159 = DIRECTION ( 'NONE',  ( 3.491481338843133355E-15, -1.224646799147353207E-16, 1.000000000000000000 ) ) ;
#160 = LOCAL_TIME ( 11, 26, 2.000000000000000000, #101 ) ;
#161 = ADVANCED_FACE ( 'NONE', ( #41 ), #111, .T. ) ;
#162 = AXIS2_PLACEMENT_3D ( 'NONE', #290, #7, #53 ) ;
#163 = EDGE_LOOP ( 'NONE', ( #25 ) ) ;
#164 = ORIENTED_EDGE ( 'NONE', *, *, #205, .F. ) ;
#165 = VERTEX_POINT ( 'NONE', #259 ) ;
#166 = APPLICATION_CONTEXT ( 'configuration controlled 3d designs of mechanical parts and assemblies' ) ;
#167 = ADVANCED_FACE ( 'NONE', ( #275, #225 ), #201, .T. ) ;
#168 = ORIENTED_EDGE ( 'NONE', *, *, #247, .F. ) ;
#169 = EDGE_LOOP ( 'NONE', ( #164 ) ) ;
#170 = CIRCLE ( 'NONE', #162, 2.000000000000000444 ) ;
#171 = FACE_OUTER_BOUND ( 'NONE', #15, .T. ) ;
#172 = DIRECTION ( 'NONE',  ( 0.0000000000000000000, 1.000000000000000000, 0.0000000000000000000 ) ) ;
#173 = PLANE ( 'NONE',  #125 ) ;
#174 = AXIS2_PLACEMENT_3D ( 'NONE', #296, #158, #14 ) ;
#175 = COORDINATED_UNIVERSAL_TIME_OFFSET ( 1, 0, .AHEAD. ) ;
#176 = CARTESIAN_POINT ( 'NONE',  ( 2.967759138016663352E-14, -1.084202172485504434E-15, 8.500000000000000000 ) ) ;
#177 = FACE_BOUND ( 'NONE', #256, .T. ) ;
#178 = DESIGN_CONTEXT ( 'detailed design', #166, 'design' ) ;
#179 = DIRECTION ( 'NONE',  ( -3.491481338843133355E-15, 1.224646799147353207E-16, -1.000000000000000000 ) ) ;
#180 = ADVANCED_FACE ( 'NONE', ( #278 ), #85, .F. ) ;
#181 = DIRECTION ( 'NONE',  ( 0.0000000000000000000, 1.000000000000000000, 0.0000000000000000000 ) ) ;
#182 = CARTESIAN_POINT ( 'NONE',  ( 4.189777606611760026E-14, -1.510100923786431230E-15, 12.00000000000000000 ) ) ;
#183 = CC_DESIGN_APPROVAL ( #241, ( #92 ) ) ;
#184 = ORIENTED_EDGE ( 'NONE', *, *, #186, .F. ) ;
#185 = EDGE_LOOP ( 'NONE', ( #115 ) ) ;
#186 = EDGE_CURVE ( 'NONE', #246, #246, #252, .T. ) ;
#187 = AXIS2_PLACEMENT_3D ( 'NONE', #5, #95, #193 ) ;
#188 = LOCAL_TIME ( 11, 26, 2.000000000000000000, #189 ) ;
#189 = COORDINATED_UNIVERSAL_TIME_OFFSET ( 1, 0, .AHEAD. ) ;
#190 = EDGE_LOOP ( 'NONE', ( #236 ) ) ;
#191 = VERTEX_POINT ( 'NONE', #284 ) ;
#192 = DIRECTION ( 'NONE',  ( 0.0000000000000000000, 0.0000000000000000000, 1.000000000000000000 ) ) ;
#193 = DIRECTION ( 'NONE',  ( 4.248621549725082608E-31, 1.000000000000000000, 1.216853575145505482E-16 ) ) ;
#194 = APPROVAL_DATE_TIME ( #292, #280 ) ;
#195 = FACE_BOUND ( 'NONE', #163, .T. ) ;
#196 = CLOSED_SHELL ( 'NONE', ( #212, #4, #167, #105, #271, #141, #161, #132, #145 ) ) ;
#197 = APPROVAL_PERSON_ORGANIZATION ( #258, #157, #234 ) ;
#198 = ORIENTED_EDGE ( 'NONE', *, *, #186, .T. ) ;
#199 = SHAPE_DEFINITION_REPRESENTATION ( #232, #206 ) ;
#200 = PRODUCT_RELATED_PRODUCT_CATEGORY ( 'detail', '', ( #69 ) ) ;
#201 = CYLINDRICAL_SURFACE ( 'NONE', #174, 3.950000000000001066 ) ;
#202 = CARTESIAN_POINT ( 'NONE',  ( 2.967759138016663352E-14, 1.999999999999999112, 8.500000000000000000 ) ) ;
#203 = DIRECTION ( 'NONE',  ( -3.491481338843133355E-15, 1.216853575145505482E-16, -1.000000000000000000 ) ) ;
#204 = AXIS2_PLACEMENT_3D ( 'NONE', #106, #159, #224 ) ;
#205 = EDGE_CURVE ( 'NONE', #107, #107, #71, .T. ) ;
#206 = ADVANCED_BREP_SHAPE_REPRESENTATION ( '388817', ( #231, #26, #78 ), #289 ) ;
#207 = DIRECTION ( 'NONE',  ( 0.0000000000000000000, 1.000000000000000000, 0.0000000000000000000 ) ) ;
#208 = PLANE ( 'NONE',  #244 ) ;
#209 = VERTEX_POINT ( 'NONE', #109 ) ;
#210 = CONICAL_SURFACE ( 'NONE', #227, 4.000000000000000888, 0.7853981633974512766 ) ;
#211 = CARTESIAN_POINT ( 'NONE',  ( 0.0000000000000000000, 0.0000000000000000000, 0.0000000000000000000 ) ) ;
#212 = ADVANCED_FACE ( 'NONE', ( #40, #177 ), #208, .T. ) ;
#213 = APPLICATION_PROTOCOL_DEFINITION ( 'international standard', 'config_control_design', 1994, #229 ) ;
#214 = EDGE_LOOP ( 'NONE', ( #144 ) ) ;
#215 = ORIENTED_EDGE ( 'NONE', *, *, #54, .T. ) ;
#216 = CIRCLE ( 'NONE', #43, 2.649999999999999911 ) ;
#217 =( NAMED_UNIT ( * ) SI_UNIT ( $, .STERADIAN. ) SOLID_ANGLE_UNIT ( ) );
#218 = DATE_TIME_ROLE ( 'classification_date' ) ;
#219 = PERSON ( 'UNSPECIFIED', 'UNSPECIFIED', 'UNSPECIFIED', ('UNSPECIFIED'), ('UNSPECIFIED'), ('UNSPECIFIED') ) ;
#220 = DIRECTION ( 'NONE',  ( 4.275831445896958607E-31, 1.000000000000000000, 1.224646799147353207E-16 ) ) ;
#221 = PERSON_AND_ORGANIZATION_ROLE ( 'design_supplier' ) ;
#222 = AXIS2_PLACEMENT_3D ( 'NONE', #34, #127, #172 ) ;
#223 = FACE_OUTER_BOUND ( 'NONE', #214, .T. ) ;
#224 = DIRECTION ( 'NONE',  ( -4.275831445896958607E-31, -1.000000000000000000, -1.224646799147353207E-16 ) ) ;
#225 = FACE_OUTER_BOUND ( 'NONE', #283, .T. ) ;
#226 = DIRECTION ( 'NONE',  ( -3.491481338843133355E-15, 1.216853575145505482E-16, -1.000000000000000000 ) ) ;
#227 = AXIS2_PLACEMENT_3D ( 'NONE', #245, #226, #207 ) ;
#228 = CC_DESIGN_APPROVAL ( #280, ( #57 ) ) ;
#229 = APPLICATION_CONTEXT ( 'configuration controlled 3d designs of mechanical parts and assemblies' ) ;
#230 = DIRECTION ( 'NONE',  ( 0.0000000000000000000, 1.000000000000000000, 0.0000000000000000000 ) ) ;
#231 = MANIFOLD_SOLID_BREP ( 'Corps-Déplacer/Copier3[1]', #196 ) ;
#232 = PRODUCT_DEFINITION_SHAPE ( 'NONE', 'NONE',  #88 ) ;
#233 = CIRCLE ( 'NONE', #303, 3.950000000000001066 ) ;
#234 = APPROVAL_ROLE ( '' ) ;
#235 = ORIENTED_EDGE ( 'NONE', *, *, #247, .T. ) ;
#236 = ORIENTED_EDGE ( 'NONE', *, *, #286, .T. ) ;
#237 = FACE_OUTER_BOUND ( 'NONE', #82, .T. ) ;
#238 = CARTESIAN_POINT ( 'NONE',  ( 4.189777606611760026E-14, -1.510100923786431230E-15, 12.00000000000000000 ) ) ;
#239 = AXIS2_PLACEMENT_3D ( 'NONE', #133, #203, #18 ) ;
#240 = PERSON_AND_ORGANIZATION ( #219, #153 ) ;
#241 = APPROVAL ( #129, 'UNSPECIFIED' ) ;
#242 = DIRECTION ( 'NONE',  ( -4.275831445896958607E-31, -1.000000000000000000, -1.224646799147353207E-16 ) ) ;
#243 = DIRECTION ( 'NONE',  ( -3.491481338843133355E-15, 1.216853575145505482E-16, -1.000000000000000000 ) ) ;
#244 = AXIS2_PLACEMENT_3D ( 'NONE', #108, #299, #273 ) ;
#245 = CARTESIAN_POINT ( 'NONE',  ( 2.206616206148860281E-13, -7.740391228531419575E-15, 63.20000000000000284 ) ) ;
#246 = VERTEX_POINT ( 'NONE', #156 ) ;
#247 = EDGE_CURVE ( 'NONE', #191, #191, #152, .T. ) ;
#248 = DIRECTION ( 'NONE',  ( 4.248621549725082608E-31, 1.000000000000000000, 1.216853575145505482E-16 ) ) ;
#249 = UNCERTAINTY_MEASURE_WITH_UNIT (LENGTH_MEASURE( 1.000000000000000082E-05 ), #72, 'distance_accuracy_value', 'NONE');
#250 = FACE_BOUND ( 'NONE', #119, .T. ) ;
#251 = CYLINDRICAL_SURFACE ( 'NONE', #136, 3.999999999999998224 ) ;
#252 = CIRCLE ( 'NONE', #110, 2.000000000000000000 ) ;
#253 = LOCAL_TIME ( 11, 26, 2.000000000000000000, #22 ) ;
#254 = DIRECTION ( 'NONE',  ( -3.491481338843133355E-15, 1.216853575145505482E-16, -1.000000000000000000 ) ) ;
#255 = EDGE_CURVE ( 'NONE', #165, #165, #17, .T. ) ;
#256 = EDGE_LOOP ( 'NONE', ( #294 ) ) ;
#257 = ORIENTED_EDGE ( 'NONE', *, *, #62, .F. ) ;
#258 = PERSON_AND_ORGANIZATION ( #219, #153 ) ;
#259 = CARTESIAN_POINT ( 'NONE',  ( 6.325174276954296129E-14, 3.949999999999997957, 18.11601914232220167 ) ) ;
#260 = ORIENTED_EDGE ( 'NONE', *, *, #205, .T. ) ;
#261 = CARTESIAN_POINT ( 'NONE',  ( 2.967759138016663352E-14, 1.499759782661856239E-32, 8.500000000000000000 ) ) ;
#262 = PERSON_AND_ORGANIZATION ( #219, #153 ) ;
#263 = DIRECTION ( 'NONE',  ( -3.491481338843133355E-15, 1.224646799147353207E-16, -1.000000000000000000 ) ) ;
#264 = CYLINDRICAL_SURFACE ( 'NONE', #47, 1.999999999999999556 ) ;
#265 = AXIS2_PLACEMENT_3D ( 'NONE', #297, #301, #134 ) ;
#266 = AXIS2_PLACEMENT_3D ( 'NONE', #300, #87, #181 ) ;
#267 = PERSON_AND_ORGANIZATION_ROLE ( 'creator' ) ;
#268 = PERSON_AND_ORGANIZATION_ROLE ( 'classification_officer' ) ;
#269 = DIRECTION ( 'NONE',  ( 0.0000000000000000000, 1.000000000000000000, 0.0000000000000000000 ) ) ;
#270 = PLANE ( 'NONE',  #302 ) ;
#271 = ADVANCED_FACE ( 'NONE', ( #65, #59 ), #251, .T. ) ;
#272 = AXIS2_PLACEMENT_3D ( 'NONE', #10, #99, #103 ) ;
#273 = DIRECTION ( 'NONE',  ( 4.248621549725082608E-31, 1.000000000000000000, 1.216853575145505482E-16 ) ) ;
#274 = VERTEX_POINT ( 'NONE', #64 ) ;
#275 = FACE_OUTER_BOUND ( 'NONE', #185, .T. ) ;
#276 = VERTEX_POINT ( 'NONE', #154 ) ;
#277 = EDGE_CURVE ( 'NONE', #33, #33, #233, .T. ) ;
#278 = FACE_OUTER_BOUND ( 'NONE', #58, .T. ) ;
#279 = DIRECTION ( 'NONE',  ( -3.491481338843133355E-15, 1.216853575145505482E-16, -1.000000000000000000 ) ) ;
#280 = APPROVAL ( #79, 'UNSPECIFIED' ) ;
#281 = CIRCLE ( 'NONE', #51, 1.999999999999999112 ) ;
#282 = EDGE_LOOP ( 'NONE', ( #45 ) ) ;
#283 = EDGE_LOOP ( 'NONE', ( #285 ) ) ;
#284 = CARTESIAN_POINT ( 'NONE',  ( 2.234548056859605347E-13, 3.199999999999993516, 64.00000000000000000 ) ) ;
#285 = ORIENTED_EDGE ( 'NONE', *, *, #255, .F. ) ;
#286 = EDGE_CURVE ( 'NONE', #27, #27, #216, .T. ) ;
#287 = DIRECTION ( 'NONE',  ( 1.000000000000000000, 0.0000000000000000000, 0.0000000000000000000 ) ) ;
#288 = CLOSED_SHELL ( 'NONE', ( #180, #118, #68 ) ) ;
#289 =( GEOMETRIC_REPRESENTATION_CONTEXT ( 3 ) GLOBAL_UNCERTAINTY_ASSIGNED_CONTEXT ( ( #249 ) ) GLOBAL_UNIT_ASSIGNED_CONTEXT ( ( #72, #31, #217 ) ) REPRESENTATION_CONTEXT ( 'NONE', 'WORKASPACE' ) );
#290 = CARTESIAN_POINT ( 'NONE',  ( 4.189777606611760026E-14, -1.510100923786431230E-15, 12.00000000000000000 ) ) ;
#291 = DATE_TIME_ROLE ( 'creation_date' ) ;
#292 = DATE_AND_TIME ( #8, #160 ) ;
#293 = CC_DESIGN_APPROVAL ( #157, ( #88 ) ) ;
#294 = ORIENTED_EDGE ( 'NONE', *, *, #54, .F. ) ;
#295 = APPROVAL_ROLE ( '' ) ;
#296 = CARTESIAN_POINT ( 'NONE',  ( 2.967759138016663352E-14, -1.084202172485504434E-15, 8.500000000000000000 ) ) ;
#297 = CARTESIAN_POINT ( 'NONE',  ( 2.234548056859605347E-13, -7.837739514543060526E-15, 64.00000000000000000 ) ) ;
#298 = CC_DESIGN_DATE_AND_TIME_ASSIGNMENT ( #11, #218, ( #57 ) ) ;
#299 = DIRECTION ( 'NONE',  ( -3.491481338843133355E-15, 1.216853575145505482E-16, -1.000000000000000000 ) ) ;
#300 = CARTESIAN_POINT ( 'NONE',  ( 6.325174276954296129E-14, -2.254330899685743381E-15, 18.11601914232220167 ) ) ;
#301 = DIRECTION ( 'NONE',  ( 3.491481338843133355E-15, -1.216853575145505482E-16, 1.000000000000000000 ) ) ;
#302 = AXIS2_PLACEMENT_3D ( 'NONE', #202, #243, #248 ) ;
#303 = AXIS2_PLACEMENT_3D ( 'NONE', #67, #254, #89 ) ;
ENDSEC;
END-ISO-10303-21;
