ISO-10303-21;
HEADER;
FILE_DESCRIPTION (( 'STEP AP203' ),
    '1' );
FILE_NAME ('388816.step',
    '2021-12-13T10:26:02',
    ( '' ),
    ( '' ),
    'SwSTEP 2.0',
    'SolidWorks 2019',
    '' );
FILE_SCHEMA (( 'CONFIG_CONTROL_DESIGN' ));
ENDSEC;

DATA;
#1 = APPROVAL_STATUS ( 'not_yet_approved' ) ;
#2 = ORIENTED_EDGE ( 'NONE', *, *, #179, .F. ) ;
#3 = CYLINDRICAL_SURFACE ( 'NONE', #27, 2.999999999999999112 ) ;
#4 = CARTESIAN_POINT ( 'NONE',  ( 1.920314736363723472E-13, -6.735557395310442615E-15, 55.00000000000000000 ) ) ;
#5 = ADVANCED_FACE ( 'NONE', ( #226, #71 ), #275, .F. ) ;
#6 = DIRECTION ( 'NONE',  ( 4.275831445896958607E-31, 1.000000000000000000, 1.224646799147353207E-16 ) ) ;
#7 = EDGE_LOOP ( 'NONE', ( #251 ) ) ;
#8 = FACE_OUTER_BOUND ( 'NONE', #115, .T. ) ;
#9 = FACE_OUTER_BOUND ( 'NONE', #311, .T. ) ;
#10 = PERSON_AND_ORGANIZATION_ROLE ( 'design_owner' ) ;
#11 = FACE_BOUND ( 'NONE', #7, .T. ) ;
#12 = CYLINDRICAL_SURFACE ( 'NONE', #17, 1.500000000000000000 ) ;
#13 = CARTESIAN_POINT ( 'NONE',  ( 2.269462870248036365E-14, -1.500000000000000888, 6.499999999999999112 ) ) ;
#14 = CARTESIAN_POINT ( 'NONE',  ( 1.920314736363723472E-13, -6.735557395310442615E-15, 55.00000000000000000 ) ) ;
#15 = CARTESIAN_POINT ( 'NONE',  ( 1.920314736363723472E-13, -2.400000000000009681, 55.00000000000000000 ) ) ;
#16 = CARTESIAN_POINT ( 'NONE',  ( 0.0000000000000000000, 0.0000000000000000000, 0.0000000000000000000 ) ) ;
#17 = AXIS2_PLACEMENT_3D ( 'NONE', #215, #113, #217 ) ;
#18 = DIRECTION ( 'NONE',  ( 3.491481338843133355E-15, -1.209937248932379215E-16, 1.000000000000000000 ) ) ;
#19 = CLOSED_SHELL ( 'NONE', ( #143, #120, #268 ) ) ;
#20 = PERSON_AND_ORGANIZATION_ROLE ( 'design_supplier' ) ;
#21 = ORIENTED_EDGE ( 'NONE', *, *, #47, .F. ) ;
#22 = AXIS2_PLACEMENT_3D ( 'NONE', #161, #85, #61 ) ;
#23 = PERSON_AND_ORGANIZATION ( #222, #236 ) ;
#24 = FACE_OUTER_BOUND ( 'NONE', #219, .T. ) ;
#25 = ADVANCED_BREP_SHAPE_REPRESENTATION ( '388816', ( #201, #205, #170 ), #43 ) ;
#26 = FACE_OUTER_BOUND ( 'NONE', #248, .T. ) ;
#27 = AXIS2_PLACEMENT_3D ( 'NONE', #4, #78, #180 ) ;
#28 = FACE_OUTER_BOUND ( 'NONE', #192, .T. ) ;
#29 = EDGE_CURVE ( 'NONE', #33, #33, #186, .T. ) ;
#30 = AXIS2_PLACEMENT_3D ( 'NONE', #212, #134, #290 ) ;
#31 = CC_DESIGN_APPROVAL ( #129, ( #34 ) ) ;
#32 = CARTESIAN_POINT ( 'NONE',  ( 2.269462870248036681E-14, 1.124819836996391837E-32, 6.500000000000000000 ) ) ;
#33 = VERTEX_POINT ( 'NONE', #190 ) ;
#34 = PRODUCT_DEFINITION ( 'UNKNOWN', '', #233, #189 ) ;
#35 = CALENDAR_DATE ( 2021, 13, 12 ) ;
#36 = DIRECTION ( 'NONE',  ( 0.0000000000000000000, -1.000000000000000000, 0.0000000000000000000 ) ) ;
#37 = DIRECTION ( 'NONE',  ( -4.224473325818601193E-31, -1.000000000000000000, -1.209937248932379215E-16 ) ) ;
#38 = VERTEX_POINT ( 'NONE', #15 ) ;
#39 = VERTEX_POINT ( 'NONE', #187 ) ;
#40 = EDGE_CURVE ( 'NONE', #295, #295, #185, .T. ) ;
#41 = CALENDAR_DATE ( 2021, 13, 12 ) ;
#42 = AXIS2_PLACEMENT_3D ( 'NONE', #243, #238, #140 ) ;
#43 =( GEOMETRIC_REPRESENTATION_CONTEXT ( 3 ) GLOBAL_UNCERTAINTY_ASSIGNED_CONTEXT ( ( #88 ) ) GLOBAL_UNIT_ASSIGNED_CONTEXT ( ( #112, #224, #114 ) ) REPRESENTATION_CONTEXT ( 'NONE', 'WORKASPACE' ) );
#44 = COORDINATED_UNIVERSAL_TIME_OFFSET ( 1, 0, .AHEAD. ) ;
#45 = FACE_OUTER_BOUND ( 'NONE', #59, .T. ) ;
#46 = APPROVAL_PERSON_ORGANIZATION ( #231, #218, #196 ) ;
#47 = EDGE_CURVE ( 'NONE', #65, #65, #86, .T. ) ;
#48 = CARTESIAN_POINT ( 'NONE',  ( -2.672346688141290807E-31, 9.373330401154691021E-33, -7.653905115892001119E-17 ) ) ;
#49 = LOCAL_TIME ( 11, 26, 2.000000000000000000, #263 ) ;
#50 = ORIENTED_EDGE ( 'NONE', *, *, #250, .T. ) ;
#51 = FACE_OUTER_BOUND ( 'NONE', #53, .T. ) ;
#52 = ADVANCED_FACE ( 'NONE', ( #98, #206 ), #261, .T. ) ;
#53 = EDGE_LOOP ( 'NONE', ( #137 ) ) ;
#54 = CARTESIAN_POINT ( 'NONE',  ( 3.212162831735682687E-14, 1.510025125786759403, 9.199999999999999289 ) ) ;
#55 = DIRECTION ( 'NONE',  ( 0.0000000000000000000, 1.000000000000000000, 0.0000000000000000000 ) ) ;
#56 = EDGE_CURVE ( 'NONE', #91, #91, #77, .T. ) ;
#57 = EDGE_LOOP ( 'NONE', ( #162 ) ) ;
#58 = PERSON_AND_ORGANIZATION ( #222, #236 ) ;
#59 = EDGE_LOOP ( 'NONE', ( #2 ) ) ;
#60 = DIRECTION ( 'NONE',  ( -3.491481338843133355E-15, 1.224646799147353207E-16, -1.000000000000000000 ) ) ;
#61 = DIRECTION ( 'NONE',  ( 0.0000000000000000000, -1.000000000000000000, 0.0000000000000000000 ) ) ;
#62 = CARTESIAN_POINT ( 'NONE',  ( 5.726029395702737440E-14, -2.950000000000002398, 16.39999999999999858 ) ) ;
#63 = AXIS2_PLACEMENT_3D ( 'NONE', #100, #321, #246 ) ;
#64 = AXIS2_PLACEMENT_3D ( 'NONE', #173, #274, #199 ) ;
#65 = VERTEX_POINT ( 'NONE', #270 ) ;
#66 = PERSON_AND_ORGANIZATION ( #222, #236 ) ;
#67 = APPROVAL_STATUS ( 'not_yet_approved' ) ;
#68 = CONICAL_SURFACE ( 'NONE', #63, 3.000000000000002220, 0.7853981633974450594 ) ;
#69 = ADVANCED_FACE ( 'NONE', ( #51, #28 ), #296, .F. ) ;
#70 = DIRECTION ( 'NONE',  ( -4.224473325818601193E-31, -1.000000000000000000, -1.209937248932379215E-16 ) ) ;
#71 = FACE_BOUND ( 'NONE', #313, .T. ) ;
#72 = DIRECTION ( 'NONE',  ( 3.491481338843133355E-15, -1.209937248932379215E-16, 1.000000000000000000 ) ) ;
#73 = EDGE_LOOP ( 'NONE', ( #174 ) ) ;
#74 = DATE_TIME_ROLE ( 'classification_date' ) ;
#75 = EDGE_LOOP ( 'NONE', ( #301 ) ) ;
#76 = SHAPE_DEFINITION_REPRESENTATION ( #289, #25 ) ;
#77 = CIRCLE ( 'NONE', #160, 2.950000000000000178 ) ;
#78 = DIRECTION ( 'NONE',  ( 3.491481338843133355E-15, -1.209937248932379215E-16, 1.000000000000000000 ) ) ;
#79 = EDGE_LOOP ( 'NONE', ( #264 ) ) ;
#80 = AXIS2_PLACEMENT_3D ( 'NONE', #104, #285, #163 ) ;
#81 = EDGE_LOOP ( 'NONE', ( #21 ) ) ;
#82 = DIRECTION ( 'NONE',  ( 0.0000000000000000000, -1.000000000000000000, 0.0000000000000000000 ) ) ;
#83 = ORIENTED_EDGE ( 'NONE', *, *, #29, .T. ) ;
#84 = FACE_OUTER_BOUND ( 'NONE', #81, .T. ) ;
#85 = DIRECTION ( 'NONE',  ( 3.491481338843133355E-15, -1.209937248932379215E-16, 1.000000000000000000 ) ) ;
#86 = CIRCLE ( 'NONE', #234, 1.500000000000000222 ) ;
#87 = ORIENTED_EDGE ( 'NONE', *, *, #272, .T. ) ;
#88 = UNCERTAINTY_MEASURE_WITH_UNIT (LENGTH_MEASURE( 1.000000000000000082E-05 ), #112, 'distance_accuracy_value', 'NONE');
#89 = DIRECTION ( 'NONE',  ( -4.224473325818601193E-31, -1.000000000000000000, -1.209937248932379215E-16 ) ) ;
#90 = ORIENTED_EDGE ( 'NONE', *, *, #56, .T. ) ;
#91 = VERTEX_POINT ( 'NONE', #62 ) ;
#92 = DATE_TIME_ROLE ( 'creation_date' ) ;
#93 = CC_DESIGN_PERSON_AND_ORGANIZATION_ASSIGNMENT ( #58, #10, ( #241 ) ) ;
#94 = EDGE_LOOP ( 'NONE', ( #87 ) ) ;
#95 = APPROVAL_DATE_TIME ( #254, #218 ) ;
#96 = CARTESIAN_POINT ( 'NONE',  ( 5.726029395702737440E-14, 2.999999999999993339, 16.39999999999999858 ) ) ;
#97 = ORIENTED_EDGE ( 'NONE', *, *, #56, .F. ) ;
#98 = FACE_OUTER_BOUND ( 'NONE', #73, .T. ) ;
#99 = AXIS2_PLACEMENT_3D ( 'NONE', #119, #229, #172 ) ;
#100 = CARTESIAN_POINT ( 'NONE',  ( 1.899365848330664293E-13, -6.662961160374498590E-15, 54.39999999999999858 ) ) ;
#101 = PLANE ( 'NONE',  #207 ) ;
#102 = AXIS2_PLACEMENT_3D ( 'NONE', #242, #260, #109 ) ;
#103 = ORIENTED_EDGE ( 'NONE', *, *, #188, .F. ) ;
#104 = CARTESIAN_POINT ( 'NONE',  ( 2.269462870248036365E-14, -8.673617379884027583E-16, 6.499999999999999112 ) ) ;
#105 = EDGE_LOOP ( 'NONE', ( #278 ) ) ;
#106 = EDGE_LOOP ( 'NONE', ( #257 ) ) ;
#107 = DIRECTION ( 'NONE',  ( -3.491481338843133355E-15, 1.209937248932379215E-16, -1.000000000000000000 ) ) ;
#108 = APPLICATION_PROTOCOL_DEFINITION ( 'international standard', 'config_control_design', 1994, #125 ) ;
#109 = DIRECTION ( 'NONE',  ( 0.0000000000000000000, -1.000000000000000000, 0.0000000000000000000 ) ) ;
#110 = CIRCLE ( 'NONE', #284, 2.999999999999995559 ) ;
#111 = CC_DESIGN_DATE_AND_TIME_ASSIGNMENT ( #227, #74, ( #177 ) ) ;
#112 =( LENGTH_UNIT ( ) NAMED_UNIT ( * ) SI_UNIT ( .MILLI., .METRE. ) );
#113 = DIRECTION ( 'NONE',  ( 3.491481338843133355E-15, -1.209937248932379215E-16, 1.000000000000000000 ) ) ;
#114 =( NAMED_UNIT ( * ) SI_UNIT ( $, .STERADIAN. ) SOLID_ANGLE_UNIT ( ) );
#115 = EDGE_LOOP ( 'NONE', ( #209 ) ) ;
#116 = DIRECTION ( 'NONE',  ( 4.224473325818601193E-31, 1.000000000000000000, 1.209937248932379215E-16 ) ) ;
#117 = CARTESIAN_POINT ( 'NONE',  ( 3.212162831735682687E-14, -1.510025125786761846, 9.199999999999999289 ) ) ;
#118 = VERTEX_POINT ( 'NONE', #167 ) ;
#119 = CARTESIAN_POINT ( 'NONE',  ( -5.344693376282581615E-31, 1.874666080230938204E-32, -1.530781023178400224E-16 ) ) ;
#120 = ADVANCED_FACE ( 'NONE', ( #26, #281 ), #253, .T. ) ;
#121 = SECURITY_CLASSIFICATION_LEVEL ( 'unclassified' ) ;
#122 = DATE_AND_TIME ( #152, #297 ) ;
#123 = APPROVAL_ROLE ( '' ) ;
#124 = DIRECTION ( 'NONE',  ( -4.275831445896958607E-31, -1.000000000000000000, -1.224646799147353207E-16 ) ) ;
#125 = APPLICATION_CONTEXT ( 'configuration controlled 3d designs of mechanical parts and assemblies' ) ;
#126 = CIRCLE ( 'NONE', #42, 1.510025125786760514 ) ;
#127 = FACE_OUTER_BOUND ( 'NONE', #79, .T. ) ;
#128 = LOCAL_TIME ( 11, 26, 2.000000000000000000, #147 ) ;
#129 = APPROVAL ( #293, 'UNSPECIFIED' ) ;
#130 = DIRECTION ( 'NONE',  ( 3.491481338843133355E-15, -1.209937248932379215E-16, 1.000000000000000000 ) ) ;
#131 = ORIENTED_EDGE ( 'NONE', *, *, #47, .T. ) ;
#132 = CARTESIAN_POINT ( 'NONE',  ( 3.142333204958820020E-14, -1.301042606982605321E-15, 9.000000000000000000 ) ) ;
#133 = CC_DESIGN_PERSON_AND_ORGANIZATION_ASSIGNMENT ( #169, #20, ( #233 ) ) ;
#134 = DIRECTION ( 'NONE',  ( 3.491481338843133355E-15, -1.209937248932379215E-16, 1.000000000000000000 ) ) ;
#135 = AXIS2_PLACEMENT_3D ( 'NONE', #54, #184, #37 ) ;
#136 = DIRECTION ( 'NONE',  ( 3.491481338843133355E-15, -1.209937248932379215E-16, 1.000000000000000000 ) ) ;
#137 = ORIENTED_EDGE ( 'NONE', *, *, #259, .F. ) ;
#138 = PLANE ( 'NONE',  #244 ) ;
#139 = DATE_AND_TIME ( #35, #49 ) ;
#140 = DIRECTION ( 'NONE',  ( 0.0000000000000000000, -1.000000000000000000, 0.0000000000000000000 ) ) ;
#141 = DIRECTION ( 'NONE',  ( 0.0000000000000000000, -1.000000000000000000, 0.0000000000000000000 ) ) ;
#142 = VERTEX_POINT ( 'NONE', #117 ) ;
#143 = ADVANCED_FACE ( 'NONE', ( #312 ), #101, .F. ) ;
#144 = CLOSED_SHELL ( 'NONE', ( #208, #69, #315, #52, #240, #5, #153, #159, #204, #168 ) ) ;
#145 = AXIS2_PLACEMENT_3D ( 'NONE', #132, #203, #282 ) ;
#146 = APPROVAL_DATE_TIME ( #175, #164 ) ;
#147 = COORDINATED_UNIVERSAL_TIME_OFFSET ( 1, 0, .AHEAD. ) ;
#148 = PERSON_AND_ORGANIZATION ( #222, #236 ) ;
#149 = AXIS2_PLACEMENT_3D ( 'NONE', #267, #136, #89 ) ;
#150 = LOCAL_TIME ( 11, 26, 2.000000000000000000, #273 ) ;
#151 = ORIENTED_EDGE ( 'NONE', *, *, #272, .F. ) ;
#152 = CALENDAR_DATE ( 2021, 13, 12 ) ;
#153 = ADVANCED_FACE ( 'NONE', ( #45, #24 ), #3, .T. ) ;
#154 = FACE_BOUND ( 'NONE', #75, .T. ) ;
#155 = LOCAL_TIME ( 11, 26, 2.000000000000000000, #271 ) ;
#156 = CC_DESIGN_PERSON_AND_ORGANIZATION_ASSIGNMENT ( #148, #299, ( #233 ) ) ;
#157 = EDGE_LOOP ( 'NONE', ( #97 ) ) ;
#158 = DIRECTION ( 'NONE',  ( 0.0000000000000000000, -1.000000000000000000, 0.0000000000000000000 ) ) ;
#159 = ADVANCED_FACE ( 'NONE', ( #154, #127 ), #68, .T. ) ;
#160 = AXIS2_PLACEMENT_3D ( 'NONE', #256, #130, #181 ) ;
#161 = CARTESIAN_POINT ( 'NONE',  ( 1.920314736363723472E-13, -6.735557395310442615E-15, 55.00000000000000000 ) ) ;
#162 = ORIENTED_EDGE ( 'NONE', *, *, #221, .F. ) ;
#163 = DIRECTION ( 'NONE',  ( 0.0000000000000000000, -1.000000000000000000, 0.0000000000000000000 ) ) ;
#164 = APPROVAL ( #67, 'UNSPECIFIED' ) ;
#165 = FACE_OUTER_BOUND ( 'NONE', #106, .T. ) ;
#166 = CIRCLE ( 'NONE', #22, 2.400000000000003020 ) ;
#167 = CARTESIAN_POINT ( 'NONE',  ( 1.899365848330664293E-13, -3.000000000000009326, 54.39999999999999858 ) ) ;
#168 = ADVANCED_FACE ( 'NONE', ( #165 ), #258, .F. ) ;
#169 = PERSON_AND_ORGANIZATION ( #222, #236 ) ;
#170 = AXIS2_PLACEMENT_3D ( 'NONE', #16, #247, #288 ) ;
#171 = APPROVAL_PERSON_ORGANIZATION ( #252, #164, #123 ) ;
#172 = DIRECTION ( 'NONE',  ( 4.275831445896958607E-31, 1.000000000000000000, 1.224646799147353454E-16 ) ) ;
#173 = CARTESIAN_POINT ( 'NONE',  ( 4.772645013909074066E-14, -1.734813980331309703E-15, 13.66939860400468554 ) ) ;
#174 = ORIENTED_EDGE ( 'NONE', *, *, #40, .F. ) ;
#175 = DATE_AND_TIME ( #200, #150 ) ;
#176 = ORIENTED_EDGE ( 'NONE', *, *, #29, .F. ) ;
#177 = SECURITY_CLASSIFICATION ( '', '', #121 ) ;
#178 = CARTESIAN_POINT ( 'NONE',  ( 3.212162831735682687E-14, -1.194044795200145348E-15, 9.199999999999999289 ) ) ;
#179 = EDGE_CURVE ( 'NONE', #118, #118, #197, .T. ) ;
#180 = DIRECTION ( 'NONE',  ( 0.0000000000000000000, -1.000000000000000000, 0.0000000000000000000 ) ) ;
#181 = DIRECTION ( 'NONE',  ( 0.0000000000000000000, -1.000000000000000000, 0.0000000000000000000 ) ) ;
#182 = ORIENTED_EDGE ( 'NONE', *, *, #188, .T. ) ;
#183 = FACE_OUTER_BOUND ( 'NONE', #157, .T. ) ;
#184 = DIRECTION ( 'NONE',  ( 3.491481338843133355E-15, -1.209937248932379215E-16, 1.000000000000000000 ) ) ;
#185 = CIRCLE ( 'NONE', #64, 2.949999999999999734 ) ;
#186 = CIRCLE ( 'NONE', #99, 1.499999999999999112 ) ;
#187 = CARTESIAN_POINT ( 'NONE',  ( 5.726029395702737440E-14, -2.999999999999997780, 16.39999999999999858 ) ) ;
#188 = EDGE_CURVE ( 'NONE', #39, #39, #110, .T. ) ;
#189 = DESIGN_CONTEXT ( 'detailed design', #125, 'design' ) ;
#190 = CARTESIAN_POINT ( 'NONE',  ( 1.069053792562852354E-31, 1.499999999999999112, 3.061891755426287241E-17 ) ) ;
#191 = APPLICATION_PROTOCOL_DEFINITION ( 'international standard', 'config_control_design', 1994, #214 ) ;
#192 = EDGE_LOOP ( 'NONE', ( #131 ) ) ;
#193 = CYLINDRICAL_SURFACE ( 'NONE', #30, 2.950000000000000178 ) ;
#194 = CARTESIAN_POINT ( 'NONE',  ( 4.772645013909074066E-14, -2.950000000000001510, 13.66939860400468554 ) ) ;
#195 = VERTEX_POINT ( 'NONE', #320 ) ;
#196 = APPROVAL_ROLE ( '' ) ;
#197 = CIRCLE ( 'NONE', #102, 3.000000000000002665 ) ;
#198 = APPROVAL_PERSON_ORGANIZATION ( #213, #129, #317 ) ;
#199 = DIRECTION ( 'NONE',  ( 0.0000000000000000000, -1.000000000000000000, 0.0000000000000000000 ) ) ;
#200 = CALENDAR_DATE ( 2021, 13, 12 ) ;
#201 = MANIFOLD_SOLID_BREP ( 'Corps-Déplacer/Copier4[1]', #144 ) ;
#202 = PERSON_AND_ORGANIZATION_ROLE ( 'creator' ) ;
#203 = DIRECTION ( 'NONE',  ( 3.491481338843133355E-15, -1.209937248932379215E-16, 1.000000000000000000 ) ) ;
#204 = ADVANCED_FACE ( 'NONE', ( #9 ), #138, .F. ) ;
#205 = MANIFOLD_SOLID_BREP ( 'Corps-Déplacer/Copier4[2]', #19 ) ;
#206 = FACE_BOUND ( 'NONE', #94, .T. ) ;
#207 = AXIS2_PLACEMENT_3D ( 'NONE', #48, #255, #124 ) ;
#208 = ADVANCED_FACE ( 'NONE', ( #84, #287 ), #12, .T. ) ;
#209 = ORIENTED_EDGE ( 'NONE', *, *, #40, .T. ) ;
#210 = DIRECTION ( 'NONE',  ( 3.491481338843133355E-15, -1.224646799147353207E-16, 1.000000000000000000 ) ) ;
#211 = EDGE_LOOP ( 'NONE', ( #50 ) ) ;
#212 = CARTESIAN_POINT ( 'NONE',  ( 1.920314736363723472E-13, -6.735557395310442615E-15, 55.00000000000000000 ) ) ;
#213 = PERSON_AND_ORGANIZATION ( #222, #236 ) ;
#214 = APPLICATION_CONTEXT ( 'configuration controlled 3d designs of mechanical parts and assemblies' ) ;
#215 = CARTESIAN_POINT ( 'NONE',  ( 1.920314736363723472E-13, -6.735557395310442615E-15, 55.00000000000000000 ) ) ;
#216 = AXIS2_PLACEMENT_3D ( 'NONE', #277, #237, #6 ) ;
#217 = DIRECTION ( 'NONE',  ( 0.0000000000000000000, -1.000000000000000000, 0.0000000000000000000 ) ) ;
#218 = APPROVAL ( #1, 'UNSPECIFIED' ) ;
#219 = EDGE_LOOP ( 'NONE', ( #182 ) ) ;
#220 = CARTESIAN_POINT ( 'NONE',  ( 5.726029395702737440E-14, -2.065199614431458659E-15, 16.39999999999999858 ) ) ;
#221 = EDGE_CURVE ( 'NONE', #195, #195, #232, .T. ) ;
#222 = PERSON ( 'UNSPECIFIED', 'UNSPECIFIED', 'UNSPECIFIED', ('UNSPECIFIED'), ('UNSPECIFIED'), ('UNSPECIFIED') ) ;
#223 = AXIS2_PLACEMENT_3D ( 'NONE', #32, #210, #294 ) ;
#224 =( NAMED_UNIT ( * ) PLANE_ANGLE_UNIT ( ) SI_UNIT ( $, .RADIAN. ) );
#225 = CC_DESIGN_APPROVAL ( #218, ( #177 ) ) ;
#226 = FACE_OUTER_BOUND ( 'NONE', #322, .T. ) ;
#227 = DATE_AND_TIME ( #303, #128 ) ;
#228 = CC_DESIGN_DATE_AND_TIME_ASSIGNMENT ( #122, #92, ( #34 ) ) ;
#229 = DIRECTION ( 'NONE',  ( -3.491481338843133355E-15, 1.224646799147353207E-16, -1.000000000000000000 ) ) ;
#230 = ORIENTED_EDGE ( 'NONE', *, *, #305, .T. ) ;
#231 = PERSON_AND_ORGANIZATION ( #222, #236 ) ;
#232 = CIRCLE ( 'NONE', #300, 1.500000000000000000 ) ;
#233 = PRODUCT_DEFINITION_FORMATION_WITH_SPECIFIED_SOURCE ( 'ANY', '', #241, .NOT_KNOWN. ) ;
#234 = AXIS2_PLACEMENT_3D ( 'NONE', #304, #72, #158 ) ;
#235 = PERSON_AND_ORGANIZATION_ROLE ( 'classification_officer' ) ;
#236 = ORGANIZATION ( 'UNSPECIFIED', 'UNSPECIFIED', '' ) ;
#237 = DIRECTION ( 'NONE',  ( -3.491481338843133355E-15, 1.224646799147353207E-16, -1.000000000000000000 ) ) ;
#238 = DIRECTION ( 'NONE',  ( 3.491481338843133355E-15, -1.209937248932379215E-16, 1.000000000000000000 ) ) ;
#239 = FACE_OUTER_BOUND ( 'NONE', #306, .T. ) ;
#240 = ADVANCED_FACE ( 'NONE', ( #183, #8 ), #193, .T. ) ;
#241 = PRODUCT ( '388816', '388816', '', ( #266 ) ) ;
#242 = CARTESIAN_POINT ( 'NONE',  ( 1.899365848330664293E-13, -6.662961160374498590E-15, 54.39999999999999858 ) ) ;
#243 = CARTESIAN_POINT ( 'NONE',  ( 3.212162831735682687E-14, -1.194044795200145348E-15, 9.199999999999999289 ) ) ;
#244 = AXIS2_PLACEMENT_3D ( 'NONE', #14, #107, #116 ) ;
#245 = VERTEX_POINT ( 'NONE', #291 ) ;
#246 = DIRECTION ( 'NONE',  ( 0.0000000000000000000, 1.000000000000000000, 0.0000000000000000000 ) ) ;
#247 = DIRECTION ( 'NONE',  ( 0.0000000000000000000, 0.0000000000000000000, 1.000000000000000000 ) ) ;
#248 = EDGE_LOOP ( 'NONE', ( #176 ) ) ;
#249 = AXIS2_PLACEMENT_3D ( 'NONE', #96, #18, #70 ) ;
#250 = EDGE_CURVE ( 'NONE', #269, #269, #279, .T. ) ;
#251 = ORIENTED_EDGE ( 'NONE', *, *, #259, .T. ) ;
#252 = PERSON_AND_ORGANIZATION ( #222, #236 ) ;
#253 = CYLINDRICAL_SURFACE ( 'NONE', #216, 1.499999999999999556 ) ;
#254 = DATE_AND_TIME ( #41, #155 ) ;
#255 = DIRECTION ( 'NONE',  ( 3.491481338843133355E-15, -1.224646799147353207E-16, 1.000000000000000000 ) ) ;
#256 = CARTESIAN_POINT ( 'NONE',  ( 5.726029395702737440E-14, -2.065199614431458659E-15, 16.39999999999999858 ) ) ;
#257 = ORIENTED_EDGE ( 'NONE', *, *, #250, .F. ) ;
#258 = PLANE ( 'NONE',  #149 ) ;
#259 = EDGE_CURVE ( 'NONE', #142, #142, #126, .T. ) ;
#260 = DIRECTION ( 'NONE',  ( 3.491481338843133355E-15, -1.209937248932379215E-16, 1.000000000000000000 ) ) ;
#261 = CONICAL_SURFACE ( 'NONE', #308, 2.000000000000000000, 0.2094395102393125097 ) ;
#262 = FACE_OUTER_BOUND ( 'NONE', #57, .T. ) ;
#263 = COORDINATED_UNIVERSAL_TIME_OFFSET ( 1, 0, .AHEAD. ) ;
#264 = ORIENTED_EDGE ( 'NONE', *, *, #179, .T. ) ;
#265 = DIRECTION ( 'NONE',  ( 3.491481338843133355E-15, -1.209937248932379215E-16, 1.000000000000000000 ) ) ;
#266 = MECHANICAL_CONTEXT ( 'NONE', #214, 'mechanical' ) ;
#267 = CARTESIAN_POINT ( 'NONE',  ( 2.269462870248036681E-14, 1.499999999999999112, 6.500000000000000000 ) ) ;
#268 = ADVANCED_FACE ( 'NONE', ( #262 ), #316, .T. ) ;
#269 = VERTEX_POINT ( 'NONE', #13 ) ;
#270 = CARTESIAN_POINT ( 'NONE',  ( 3.142333204958820651E-14, -1.500000000000001332, 9.000000000000001776 ) ) ;
#271 = COORDINATED_UNIVERSAL_TIME_OFFSET ( 1, 0, .AHEAD. ) ;
#272 = EDGE_CURVE ( 'NONE', #245, #245, #318, .T. ) ;
#273 = COORDINATED_UNIVERSAL_TIME_OFFSET ( 1, 0, .AHEAD. ) ;
#274 = DIRECTION ( 'NONE',  ( 3.491481338843133355E-15, -1.209937248932379215E-16, 1.000000000000000000 ) ) ;
#275 = PLANE ( 'NONE',  #249 ) ;
#276 = PRODUCT_RELATED_PRODUCT_CATEGORY ( 'detail', '', ( #241 ) ) ;
#277 = CARTESIAN_POINT ( 'NONE',  ( 0.0000000000000000000, 0.0000000000000000000, 0.0000000000000000000 ) ) ;
#278 = ORIENTED_EDGE ( 'NONE', *, *, #221, .T. ) ;
#279 = CIRCLE ( 'NONE', #80, 1.500000000000000000 ) ;
#280 = CC_DESIGN_APPROVAL ( #164, ( #233 ) ) ;
#281 = FACE_OUTER_BOUND ( 'NONE', #105, .T. ) ;
#282 = DIRECTION ( 'NONE',  ( -4.224473325818601193E-31, -1.000000000000000000, -1.209937248932379215E-16 ) ) ;
#283 = CC_DESIGN_PERSON_AND_ORGANIZATION_ASSIGNMENT ( #66, #202, ( #34 ) ) ;
#284 = AXIS2_PLACEMENT_3D ( 'NONE', #220, #314, #141 ) ;
#285 = DIRECTION ( 'NONE',  ( 3.491481338843133355E-15, -1.209937248932379215E-16, 1.000000000000000000 ) ) ;
#286 = EDGE_LOOP ( 'NONE', ( #83 ) ) ;
#287 = FACE_OUTER_BOUND ( 'NONE', #211, .T. ) ;
#288 = DIRECTION ( 'NONE',  ( 1.000000000000000000, 0.0000000000000000000, 0.0000000000000000000 ) ) ;
#289 = PRODUCT_DEFINITION_SHAPE ( 'NONE', 'NONE',  #34 ) ;
#290 = DIRECTION ( 'NONE',  ( 0.0000000000000000000, -1.000000000000000000, 0.0000000000000000000 ) ) ;
#291 = CARTESIAN_POINT ( 'NONE',  ( 3.212162831735682687E-14, -2.000000000000001332, 9.199999999999999289 ) ) ;
#292 = PLANE ( 'NONE',  #135 ) ;
#293 = APPROVAL_STATUS ( 'not_yet_approved' ) ;
#294 = DIRECTION ( 'NONE',  ( -4.275831445896958607E-31, -1.000000000000000000, -1.224646799147353207E-16 ) ) ;
#295 = VERTEX_POINT ( 'NONE', #194 ) ;
#296 = TOROIDAL_SURFACE ( 'NONE', #145, 3.500000000000000888, 2.000000000000000444 ) ;
#297 = LOCAL_TIME ( 11, 26, 2.000000000000000000, #44 ) ;
#298 = CC_DESIGN_PERSON_AND_ORGANIZATION_ASSIGNMENT ( #23, #235, ( #177 ) ) ;
#299 = PERSON_AND_ORGANIZATION_ROLE ( 'creator' ) ;
#300 = AXIS2_PLACEMENT_3D ( 'NONE', #323, #60, #55 ) ;
#301 = ORIENTED_EDGE ( 'NONE', *, *, #305, .F. ) ;
#302 = CC_DESIGN_SECURITY_CLASSIFICATION ( #177, ( #233 ) ) ;
#303 = CALENDAR_DATE ( 2021, 13, 12 ) ;
#304 = CARTESIAN_POINT ( 'NONE',  ( 3.142333204958820651E-14, -1.169846050221497932E-15, 9.000000000000001776 ) ) ;
#305 = EDGE_CURVE ( 'NONE', #38, #38, #166, .T. ) ;
#306 = EDGE_LOOP ( 'NONE', ( #151 ) ) ;
#307 = APPROVAL_DATE_TIME ( #139, #129 ) ;
#308 = AXIS2_PLACEMENT_3D ( 'NONE', #178, #309, #82 ) ;
#309 = DIRECTION ( 'NONE',  ( 3.491481338843133355E-15, -1.209937248932379215E-16, 1.000000000000000000 ) ) ;
#310 = AXIS2_PLACEMENT_3D ( 'NONE', #319, #265, #36 ) ;
#311 = EDGE_LOOP ( 'NONE', ( #230 ) ) ;
#312 = FACE_OUTER_BOUND ( 'NONE', #286, .T. ) ;
#313 = EDGE_LOOP ( 'NONE', ( #90 ) ) ;
#314 = DIRECTION ( 'NONE',  ( 3.491481338843133355E-15, -1.209937248932379215E-16, 1.000000000000000000 ) ) ;
#315 = ADVANCED_FACE ( 'NONE', ( #239, #11 ), #292, .F. ) ;
#316 = PLANE ( 'NONE',  #223 ) ;
#317 = APPROVAL_ROLE ( '' ) ;
#318 = CIRCLE ( 'NONE', #310, 2.000000000000000000 ) ;
#319 = CARTESIAN_POINT ( 'NONE',  ( 3.212162831735682687E-14, -1.194044795200145348E-15, 9.199999999999999289 ) ) ;
#320 = CARTESIAN_POINT ( 'NONE',  ( 2.269462870248036681E-14, 1.499999999999999112, 6.500000000000000000 ) ) ;
#321 = DIRECTION ( 'NONE',  ( -3.491481338843133355E-15, 1.209937248932379215E-16, -1.000000000000000000 ) ) ;
#322 = EDGE_LOOP ( 'NONE', ( #103 ) ) ;
#323 = CARTESIAN_POINT ( 'NONE',  ( 2.269462870248036681E-14, -7.960204194457795477E-16, 6.500000000000000000 ) ) ;
ENDSEC;
END-ISO-10303-21;
