ISO-10303-21;
HEADER;
FILE_DESCRIPTION (( 'STEP AP203' ),
    '1' );
FILE_NAME ('388815.step',
    '2021-12-13T10:26:01',
    ( '' ),
    ( '' ),
    'SwSTEP 2.0',
    'SolidWorks 2019',
    '' );
FILE_SCHEMA (( 'CONFIG_CONTROL_DESIGN' ));
ENDSEC;

DATA;
#1 = VERTEX_POINT ( 'NONE', #198 ) ;
#2 = CARTESIAN_POINT ( 'NONE',  ( 5.607668178315956501E-14, -1.948785266434775801E-15, 16.06099999999999994 ) ) ;
#3 = APPLICATION_PROTOCOL_DEFINITION ( 'international standard', 'config_control_design', 1994, #255 ) ;
#4 = CIRCLE ( 'NONE', #181, 2.400000000000003020 ) ;
#5 = AXIS2_PLACEMENT_3D ( 'NONE', #173, #98, #282 ) ;
#6 = CALENDAR_DATE ( 2021, 13, 12 ) ;
#7 = DIRECTION ( 'NONE',  ( -3.491481338843133355E-15, 1.229300220569522999E-16, -1.000000000000000000 ) ) ;
#8 = PERSON_AND_ORGANIZATION_ROLE ( 'creator' ) ;
#9 = DIRECTION ( 'NONE',  ( -3.491481338843133355E-15, 1.229300220569522999E-16, -1.000000000000000000 ) ) ;
#10 = DIRECTION ( 'NONE',  ( 0.0000000000000000000, 1.000000000000000000, 0.0000000000000000000 ) ) ;
#11 = DATE_AND_TIME ( #12, #20 ) ;
#12 = CALENDAR_DATE ( 2021, 13, 12 ) ;
#13 = ADVANCED_FACE ( 'NONE', ( #302 ), #212, .T. ) ;
#14 = CONICAL_SURFACE ( 'NONE', #209, 1.625000000000000000, 0.2094395102393127317 ) ;
#15 = EDGE_LOOP ( 'NONE', ( #228 ) ) ;
#16 = ORIENTED_EDGE ( 'NONE', *, *, #191, .T. ) ;
#17 = DATE_AND_TIME ( #135, #45 ) ;
#18 = ORIENTED_EDGE ( 'NONE', *, *, #100, .F. ) ;
#19 = CC_DESIGN_DATE_AND_TIME_ASSIGNMENT ( #178, #270, ( #210 ) ) ;
#20 = LOCAL_TIME ( 11, 26, 1.000000000000000000, #131 ) ;
#21 = FACE_OUTER_BOUND ( 'NONE', #66, .T. ) ;
#22 = DIRECTION ( 'NONE',  ( -3.491481338843133355E-15, 1.224646799147353207E-16, -1.000000000000000000 ) ) ;
#23 = EDGE_CURVE ( 'NONE', #280, #280, #152, .T. ) ;
#24 = DIRECTION ( 'NONE',  ( 4.292078779954237141E-31, 1.000000000000000000, 1.229300220569522999E-16 ) ) ;
#25 = CIRCLE ( 'NONE', #80, 2.999999999999995115 ) ;
#26 = DIRECTION ( 'NONE',  ( -3.491481338843133355E-15, 1.229300220569522999E-16, -1.000000000000000000 ) ) ;
#27 = CARTESIAN_POINT ( 'NONE',  ( 1.920314736363723345E-14, 1.249999999999999334, 5.500000000000000000 ) ) ;
#28 = FACE_OUTER_BOUND ( 'NONE', #15, .T. ) ;
#29 = PERSON_AND_ORGANIZATION ( #124, #70 ) ;
#30 = FACE_BOUND ( 'NONE', #90, .T. ) ;
#31 = DIRECTION ( 'NONE',  ( -3.491481338843133355E-15, 1.229300220569522999E-16, -1.000000000000000000 ) ) ;
#32 = PERSON_AND_ORGANIZATION ( #124, #70 ) ;
#33 = DIRECTION ( 'NONE',  ( -3.491481338843133355E-15, 1.229300220569522999E-16, -1.000000000000000000 ) ) ;
#34 = ADVANCED_FACE ( 'NONE', ( #55, #147 ), #106, .T. ) ;
#35 = FACE_OUTER_BOUND ( 'NONE', #227, .T. ) ;
#36 = CARTESIAN_POINT ( 'NONE',  ( 0.0000000000000000000, 0.0000000000000000000, 0.0000000000000000000 ) ) ;
#37 = PERSON_AND_ORGANIZATION_ROLE ( 'design_supplier' ) ;
#38 =( NAMED_UNIT ( * ) PLANE_ANGLE_UNIT ( ) SI_UNIT ( $, .RADIAN. ) );
#39 = PRODUCT ( '388815', '388815', '', ( #174 ) ) ;
#40 = EDGE_LOOP ( 'NONE', ( #272 ) ) ;
#41 = CIRCLE ( 'NONE', #214, 1.250000000000000000 ) ;
#42 = ORIENTED_EDGE ( 'NONE', *, *, #285, .F. ) ;
#43 = AXIS2_PLACEMENT_3D ( 'NONE', #101, #26, #121 ) ;
#44 = CYLINDRICAL_SURFACE ( 'NONE', #114, 1.249999999999999778 ) ;
#45 = LOCAL_TIME ( 11, 26, 1.000000000000000000, #292 ) ;
#46 = DIRECTION ( 'NONE',  ( 3.491481338843133355E-15, -1.224646799147353207E-16, 1.000000000000000000 ) ) ;
#47 = PLANE ( 'NONE',  #296 ) ;
#48 = DIRECTION ( 'NONE',  ( 0.0000000000000000000, 1.000000000000000000, 0.0000000000000000000 ) ) ;
#49 = FACE_OUTER_BOUND ( 'NONE', #294, .T. ) ;
#50 = DIRECTION ( 'NONE',  ( -4.292078779954237141E-31, -1.000000000000000000, -1.229300220569522999E-16 ) ) ;
#51 = DIRECTION ( 'NONE',  ( -3.491481338843133355E-15, 1.224646799147353207E-16, -1.000000000000000000 ) ) ;
#52 = DIRECTION ( 'NONE',  ( 3.491481338843133355E-15, -1.229300220569522999E-16, 1.000000000000000000 ) ) ;
#53 = CARTESIAN_POINT ( 'NONE',  ( 4.655413741504669590E-14, 2.949999999999998845, 13.33363489505916455 ) ) ;
#54 = DIRECTION ( 'NONE',  ( 3.491481338843133355E-15, -1.229300220569522999E-16, 1.000000000000000000 ) ) ;
#55 = FACE_OUTER_BOUND ( 'NONE', #256, .T. ) ;
#56 = APPROVAL_STATUS ( 'not_yet_approved' ) ;
#57 = CC_DESIGN_APPROVAL ( #229, ( #210 ) ) ;
#58 = DIRECTION ( 'NONE',  ( 4.275831445896958607E-31, 1.000000000000000000, 1.224646799147353207E-16 ) ) ;
#59 = CC_DESIGN_PERSON_AND_ORGANIZATION_ASSIGNMENT ( #245, #37, ( #64 ) ) ;
#60 = FACE_OUTER_BOUND ( 'NONE', #274, .T. ) ;
#61 = CALENDAR_DATE ( 2021, 13, 12 ) ;
#62 = MANIFOLD_SOLID_BREP ( 'Corps-Déplacer/Copier3[2]', #120 ) ;
#63 = VERTEX_POINT ( 'NONE', #249 ) ;
#64 = PRODUCT_DEFINITION_FORMATION_WITH_SPECIFIED_SOURCE ( 'ANY', '', #39, .NOT_KNOWN. ) ;
#65 = EDGE_LOOP ( 'NONE', ( #42 ) ) ;
#66 = EDGE_LOOP ( 'NONE', ( #195 ) ) ;
#67 = ORIENTED_EDGE ( 'NONE', *, *, #133, .T. ) ;
#68 = EDGE_CURVE ( 'NONE', #117, #117, #4, .T. ) ;
#69 = DIRECTION ( 'NONE',  ( 0.0000000000000000000, 1.000000000000000000, 0.0000000000000000000 ) ) ;
#70 = ORGANIZATION ( 'UNSPECIFIED', 'UNSPECIFIED', '' ) ;
#71 = DIRECTION ( 'NONE',  ( 0.0000000000000000000, 1.000000000000000000, 0.0000000000000000000 ) ) ;
#72 = DIRECTION ( 'NONE',  ( 0.0000000000000000000, 1.000000000000000000, 0.0000000000000000000 ) ) ;
#73 = CARTESIAN_POINT ( 'NONE',  ( 4.655413741504669590E-14, -1.613510213927036977E-15, 13.33363489505916455 ) ) ;
#74 = CARTESIAN_POINT ( 'NONE',  ( 1.920314736363723472E-13, 2.399999999999995914, 55.00000000000000000 ) ) ;
#75 = CIRCLE ( 'NONE', #300, 1.250000000000000000 ) ;
#76 = CIRCLE ( 'NONE', #102, 2.950000000000000178 ) ;
#77 = PLANE ( 'NONE',  #271 ) ;
#78 = CARTESIAN_POINT ( 'NONE',  ( 1.069053792562852354E-31, 1.249999999999999334, 3.061891755426287241E-17 ) ) ;
#79 = ADVANCED_FACE ( 'NONE', ( #243, #60 ), #81, .T. ) ;
#80 = AXIS2_PLACEMENT_3D ( 'NONE', #258, #94, #144 ) ;
#81 = CYLINDRICAL_SURFACE ( 'NONE', #165, 1.250000000000000222 ) ;
#82 = LOCAL_TIME ( 11, 26, 1.000000000000000000, #242 ) ;
#83 =( NAMED_UNIT ( * ) SI_UNIT ( $, .STERADIAN. ) SOLID_ANGLE_UNIT ( ) );
#84 = DIRECTION ( 'NONE',  ( 0.0000000000000000000, 1.000000000000000000, 0.0000000000000000000 ) ) ;
#85 = VERTEX_POINT ( 'NONE', #180 ) ;
#86 = DATE_TIME_ROLE ( 'classification_date' ) ;
#87 = AXIS2_PLACEMENT_3D ( 'NONE', #241, #31, #128 ) ;
#88 = APPROVAL_ROLE ( '' ) ;
#89 = EDGE_LOOP ( 'NONE', ( #116 ) ) ;
#90 = EDGE_LOOP ( 'NONE', ( #18 ) ) ;
#91 = ADVANCED_FACE ( 'NONE', ( #35, #30 ), #14, .T. ) ;
#92 = EDGE_LOOP ( 'NONE', ( #156 ) ) ;
#93 = DATE_AND_TIME ( #295, #166 ) ;
#94 = DIRECTION ( 'NONE',  ( -3.491481338843133355E-15, 1.229300220569522999E-16, -1.000000000000000000 ) ) ;
#95 = ORIENTED_EDGE ( 'NONE', *, *, #188, .F. ) ;
#96 = DIRECTION ( 'NONE',  ( 4.292078779954237141E-31, 1.000000000000000000, 1.229300220569522999E-16 ) ) ;
#97 = CIRCLE ( 'NONE', #197, 3.000000000000002665 ) ;
#98 = DIRECTION ( 'NONE',  ( 3.491481338843133355E-15, -1.224646799147353207E-16, 1.000000000000000000 ) ) ;
#99 = DIRECTION ( 'NONE',  ( -3.491481338843133355E-15, 1.229300220569522999E-16, -1.000000000000000000 ) ) ;
#100 = EDGE_CURVE ( 'NONE', #211, #211, #284, .T. ) ;
#101 = CARTESIAN_POINT ( 'NONE',  ( 1.920314736363723345E-14, -6.505213034913026604E-16, 5.500000000000000000 ) ) ;
#102 = AXIS2_PLACEMENT_3D ( 'NONE', #73, #283, #69 ) ;
#103 = PERSON_AND_ORGANIZATION ( #124, #70 ) ;
#104 = APPROVAL ( #161, 'UNSPECIFIED' ) ;
#105 = PERSON_AND_ORGANIZATION ( #124, #70 ) ;
#106 = CYLINDRICAL_SURFACE ( 'NONE', #87, 2.950000000000000178 ) ;
#107 = APPROVAL_ROLE ( '' ) ;
#108 = DIRECTION ( 'NONE',  ( 0.0000000000000000000, 1.000000000000000000, 0.0000000000000000000 ) ) ;
#109 = CARTESIAN_POINT ( 'NONE',  ( 1.920314736363723345E-14, -6.735557395310442023E-16, 5.500000000000000000 ) ) ;
#110 = PERSON_AND_ORGANIZATION ( #124, #70 ) ;
#111 = PRODUCT_RELATED_PRODUCT_CATEGORY ( 'detail', '', ( #39 ) ) ;
#112 = ORIENTED_EDGE ( 'NONE', *, *, #23, .T. ) ;
#113 = EDGE_LOOP ( 'NONE', ( #251 ) ) ;
#114 = AXIS2_PLACEMENT_3D ( 'NONE', #36, #287, #58 ) ;
#115 = CONICAL_SURFACE ( 'NONE', #247, 3.000000000000002220, 0.7853981633974450594 ) ;
#116 = ORIENTED_EDGE ( 'NONE', *, *, #252, .F. ) ;
#117 = VERTEX_POINT ( 'NONE', #74 ) ;
#118 = DIRECTION ( 'NONE',  ( 0.0000000000000000000, 1.000000000000000000, 0.0000000000000000000 ) ) ;
#119 = PLANE ( 'NONE',  #177 ) ;
#120 = CLOSED_SHELL ( 'NONE', ( #150, #136, #281 ) ) ;
#121 = DIRECTION ( 'NONE',  ( 0.0000000000000000000, 1.000000000000000000, 0.0000000000000000000 ) ) ;
#122 = VERTEX_POINT ( 'NONE', #217 ) ;
#123 = CARTESIAN_POINT ( 'NONE',  ( -2.137867757404171639E-31, 7.498630672827369011E-33, -6.123096616957810535E-17 ) ) ;
#124 = PERSON ( 'UNSPECIFIED', 'UNSPECIFIED', 'UNSPECIFIED', ('UNSPECIFIED'), ('UNSPECIFIED'), ('UNSPECIFIED') ) ;
#125 = CC_DESIGN_PERSON_AND_ORGANIZATION_ASSIGNMENT ( #110, #203, ( #293 ) ) ;
#126 = AXIS2_PLACEMENT_3D ( 'NONE', #263, #52, #50 ) ;
#127 = LOCAL_TIME ( 11, 26, 1.000000000000000000, #179 ) ;
#128 = DIRECTION ( 'NONE',  ( 0.0000000000000000000, 1.000000000000000000, 0.0000000000000000000 ) ) ;
#129 = DIRECTION ( 'NONE',  ( 1.000000000000000000, 0.0000000000000000000, 0.0000000000000000000 ) ) ;
#130 = CARTESIAN_POINT ( 'NONE',  ( 1.920314736363723345E-14, -6.505213034913026604E-16, 5.500000000000000000 ) ) ;
#131 = COORDINATED_UNIVERSAL_TIME_OFFSET ( 1, 0, .AHEAD. ) ;
#132 = AXIS2_PLACEMENT_3D ( 'NONE', #239, #193, #277 ) ;
#133 = EDGE_CURVE ( 'NONE', #238, #238, #75, .T. ) ;
#134 = DATE_AND_TIME ( #61, #82 ) ;
#135 = CALENDAR_DATE ( 2021, 13, 12 ) ;
#136 = ADVANCED_FACE ( 'NONE', ( #259, #206 ), #44, .T. ) ;
#137 = SHAPE_DEFINITION_REPRESENTATION ( #248, #182 ) ;
#138 = ORIENTED_EDGE ( 'NONE', *, *, #237, .T. ) ;
#139 = APPROVAL_PERSON_ORGANIZATION ( #29, #229, #107 ) ;
#140 = APPROVAL_PERSON_ORGANIZATION ( #105, #232, #290 ) ;
#141 = CARTESIAN_POINT ( 'NONE',  ( -4.275735514808343277E-31, 1.499726134565473802E-32, -1.224619323391562107E-16 ) ) ;
#142 = FACE_OUTER_BOUND ( 'NONE', #40, .T. ) ;
#143 = ADVANCED_FACE ( 'NONE', ( #230, #154 ), #119, .T. ) ;
#144 = DIRECTION ( 'NONE',  ( 0.0000000000000000000, 1.000000000000000000, 0.0000000000000000000 ) ) ;
#145 = DIRECTION ( 'NONE',  ( -3.491481338843133355E-15, 1.229300220569522999E-16, -1.000000000000000000 ) ) ;
#146 = FACE_BOUND ( 'NONE', #113, .T. ) ;
#147 = FACE_OUTER_BOUND ( 'NONE', #171, .T. ) ;
#148 = APPROVAL_DATE_TIME ( #11, #229 ) ;
#149 = DIRECTION ( 'NONE',  ( 0.0000000000000000000, 0.0000000000000000000, 1.000000000000000000 ) ) ;
#150 = ADVANCED_FACE ( 'NONE', ( #28 ), #196, .F. ) ;
#151 = APPROVAL_DATE_TIME ( #134, #232 ) ;
#152 = CIRCLE ( 'NONE', #246, 2.950000000000000622 ) ;
#153 = PERSON_AND_ORGANIZATION_ROLE ( 'design_owner' ) ;
#154 = FACE_BOUND ( 'NONE', #278, .T. ) ;
#155 = CC_DESIGN_DATE_AND_TIME_ASSIGNMENT ( #17, #86, ( #293 ) ) ;
#156 = ORIENTED_EDGE ( 'NONE', *, *, #252, .T. ) ;
#157 = ORIENTED_EDGE ( 'NONE', *, *, #188, .T. ) ;
#158 = ORIENTED_EDGE ( 'NONE', *, *, #23, .F. ) ;
#159 = AXIS2_PLACEMENT_3D ( 'NONE', #141, #51, #190 ) ;
#160 = EDGE_LOOP ( 'NONE', ( #67 ) ) ;
#161 = APPROVAL_STATUS ( 'not_yet_approved' ) ;
#162 = MANIFOLD_SOLID_BREP ( 'Corps-Déplacer/Copier3[1]', #240 ) ;
#163 = EDGE_LOOP ( 'NONE', ( #202 ) ) ;
#164 = CARTESIAN_POINT ( 'NONE',  ( 1.920314736363723345E-14, -6.505213034913026604E-16, 5.500000000000000000 ) ) ;
#165 = AXIS2_PLACEMENT_3D ( 'NONE', #130, #9, #108 ) ;
#166 = LOCAL_TIME ( 11, 26, 1.000000000000000000, #183 ) ;
#167 = FACE_OUTER_BOUND ( 'NONE', #297, .T. ) ;
#168 = CC_DESIGN_PERSON_AND_ORGANIZATION_ASSIGNMENT ( #103, #201, ( #210 ) ) ;
#169 = DIRECTION ( 'NONE',  ( -3.491481338843133355E-15, 1.229300220569522999E-16, -1.000000000000000000 ) ) ;
#170 = DIRECTION ( 'NONE',  ( -3.491481338843133355E-15, 1.229300220569522999E-16, -1.000000000000000000 ) ) ;
#171 = EDGE_LOOP ( 'NONE', ( #187 ) ) ;
#172 = CIRCLE ( 'NONE', #132, 1.250000000000000222 ) ;
#173 = CARTESIAN_POINT ( 'NONE',  ( 1.920314736363723345E-14, 9.373498641636600470E-33, 5.500000000000000000 ) ) ;
#174 = MECHANICAL_CONTEXT ( 'NONE', #276, 'mechanical' ) ;
#175 = DIRECTION ( 'NONE',  ( 0.0000000000000000000, 1.000000000000000000, 0.0000000000000000000 ) ) ;
#176 = CARTESIAN_POINT ( 'NONE',  ( 2.478951750578624367E-14, -8.472093387824262614E-16, 7.099999999999999645 ) ) ;
#177 = AXIS2_PLACEMENT_3D ( 'NONE', #218, #99, #299 ) ;
#178 = DATE_AND_TIME ( #6, #127 ) ;
#179 = COORDINATED_UNIVERSAL_TIME_OFFSET ( 1, 0, .AHEAD. ) ;
#180 = CARTESIAN_POINT ( 'NONE',  ( 2.478951750578624367E-14, 1.249999999999999334, 7.099999999999999645 ) ) ;
#181 = AXIS2_PLACEMENT_3D ( 'NONE', #223, #7, #84 ) ;
#182 = ADVANCED_BREP_SHAPE_REPRESENTATION ( '388815', ( #162, #62, #185 ), #215 ) ;
#183 = COORDINATED_UNIVERSAL_TIME_OFFSET ( 1, 0, .AHEAD. ) ;
#184 = CC_DESIGN_PERSON_AND_ORGANIZATION_ASSIGNMENT ( #32, #8, ( #64 ) ) ;
#185 = AXIS2_PLACEMENT_3D ( 'NONE', #268, #149, #129 ) ;
#186 = UNCERTAINTY_MEASURE_WITH_UNIT (LENGTH_MEASURE( 1.000000000000000082E-05 ), #288, 'distance_accuracy_value', 'NONE');
#187 = ORIENTED_EDGE ( 'NONE', *, *, #237, .F. ) ;
#188 = EDGE_CURVE ( 'NONE', #122, #122, #41, .T. ) ;
#189 = APPROVAL_DATE_TIME ( #93, #104 ) ;
#190 = DIRECTION ( 'NONE',  ( 4.275831445896959482E-31, 1.000000000000000000, 1.224646799147353207E-16 ) ) ;
#191 = EDGE_CURVE ( 'NONE', #1, #1, #25, .T. ) ;
#192 = CARTESIAN_POINT ( 'NONE',  ( 2.478951750578624367E-14, 1.624999999999999112, 7.099999999999999645 ) ) ;
#193 = DIRECTION ( 'NONE',  ( -3.491481338843133355E-15, 1.229300220569522999E-16, -1.000000000000000000 ) ) ;
#194 = DIRECTION ( 'NONE',  ( -4.275831445896958607E-31, -1.000000000000000000, -1.224646799147353207E-16 ) ) ;
#195 = ORIENTED_EDGE ( 'NONE', *, *, #133, .F. ) ;
#196 = PLANE ( 'NONE',  #289 ) ;
#197 = AXIS2_PLACEMENT_3D ( 'NONE', #236, #279, #118 ) ;
#198 = CARTESIAN_POINT ( 'NONE',  ( 5.607668178315956501E-14, 2.999999999999993339, 16.06099999999999994 ) ) ;
#199 = VERTEX_POINT ( 'NONE', #78 ) ;
#200 = EDGE_CURVE ( 'NONE', #199, #199, #253, .T. ) ;
#201 = PERSON_AND_ORGANIZATION_ROLE ( 'creator' ) ;
#202 = ORIENTED_EDGE ( 'NONE', *, *, #200, .F. ) ;
#203 = PERSON_AND_ORGANIZATION_ROLE ( 'classification_officer' ) ;
#204 = CC_DESIGN_APPROVAL ( #232, ( #64 ) ) ;
#205 = ORIENTED_EDGE ( 'NONE', *, *, #100, .T. ) ;
#206 = FACE_OUTER_BOUND ( 'NONE', #160, .T. ) ;
#207 = DESIGN_CONTEXT ( 'detailed design', #255, 'design' ) ;
#208 = EDGE_LOOP ( 'NONE', ( #298 ) ) ;
#209 = AXIS2_PLACEMENT_3D ( 'NONE', #176, #54, #222 ) ;
#210 = PRODUCT_DEFINITION ( 'UNKNOWN', '', #64, #207 ) ;
#211 = VERTEX_POINT ( 'NONE', #192 ) ;
#212 = PLANE ( 'NONE',  #126 ) ;
#213 = FACE_OUTER_BOUND ( 'NONE', #92, .T. ) ;
#214 = AXIS2_PLACEMENT_3D ( 'NONE', #164, #170, #71 ) ;
#215 =( GEOMETRIC_REPRESENTATION_CONTEXT ( 3 ) GLOBAL_UNCERTAINTY_ASSIGNED_CONTEXT ( ( #186 ) ) GLOBAL_UNIT_ASSIGNED_CONTEXT ( ( #288, #38, #83 ) ) REPRESENTATION_CONTEXT ( 'NONE', 'WORKASPACE' ) );
#216 = CARTESIAN_POINT ( 'NONE',  ( 1.899365848330664293E-13, -6.661799382076269687E-15, 54.39999999999999858 ) ) ;
#217 = CARTESIAN_POINT ( 'NONE',  ( 1.920314736363723345E-14, 1.249999999999999334, 5.500000000000000000 ) ) ;
#218 = CARTESIAN_POINT ( 'NONE',  ( 5.607668178315956501E-14, 2.999999999999993339, 16.06099999999999994 ) ) ;
#219 = AXIS2_PLACEMENT_3D ( 'NONE', #244, #33, #10 ) ;
#220 = CC_DESIGN_APPROVAL ( #104, ( #293 ) ) ;
#221 = PERSON_AND_ORGANIZATION ( #124, #70 ) ;
#222 = DIRECTION ( 'NONE',  ( 0.0000000000000000000, -1.000000000000000000, 0.0000000000000000000 ) ) ;
#223 = CARTESIAN_POINT ( 'NONE',  ( 1.920314736363723472E-13, -6.735557395310441826E-15, 55.00000000000000000 ) ) ;
#224 = ADVANCED_FACE ( 'NONE', ( #167, #264 ), #47, .T. ) ;
#225 = APPLICATION_PROTOCOL_DEFINITION ( 'international standard', 'config_control_design', 1994, #276 ) ;
#226 = SECURITY_CLASSIFICATION_LEVEL ( 'unclassified' ) ;
#227 = EDGE_LOOP ( 'NONE', ( #138 ) ) ;
#228 = ORIENTED_EDGE ( 'NONE', *, *, #200, .T. ) ;
#229 = APPROVAL ( #56, 'UNSPECIFIED' ) ;
#230 = FACE_OUTER_BOUND ( 'NONE', #250, .T. ) ;
#231 = APPROVAL_PERSON_ORGANIZATION ( #275, #104, #88 ) ;
#232 = APPROVAL ( #286, 'UNSPECIFIED' ) ;
#233 = CARTESIAN_POINT ( 'NONE',  ( 2.478951750578624367E-14, 1.624999999999999112, 7.099999999999999645 ) ) ;
#234 = ORIENTED_EDGE ( 'NONE', *, *, #285, .T. ) ;
#235 = FACE_OUTER_BOUND ( 'NONE', #89, .T. ) ;
#236 = CARTESIAN_POINT ( 'NONE',  ( 1.899365848330664293E-13, -6.661799382076269687E-15, 54.39999999999999858 ) ) ;
#237 = EDGE_CURVE ( 'NONE', #265, #265, #76, .T. ) ;
#238 = VERTEX_POINT ( 'NONE', #27 ) ;
#239 = CARTESIAN_POINT ( 'NONE',  ( 2.478951750578624367E-14, -8.472093387824262614E-16, 7.099999999999999645 ) ) ;
#240 = CLOSED_SHELL ( 'NONE', ( #224, #91, #34, #143, #261, #269, #13, #273, #79 ) ) ;
#241 = CARTESIAN_POINT ( 'NONE',  ( 1.920314736363723345E-14, -6.505213034913026604E-16, 5.500000000000000000 ) ) ;
#242 = COORDINATED_UNIVERSAL_TIME_OFFSET ( 1, 0, .AHEAD. ) ;
#243 = FACE_OUTER_BOUND ( 'NONE', #291, .T. ) ;
#244 = CARTESIAN_POINT ( 'NONE',  ( 2.478951750578624367E-14, -8.472093387824262614E-16, 7.099999999999999645 ) ) ;
#245 = PERSON_AND_ORGANIZATION ( #124, #70 ) ;
#246 = AXIS2_PLACEMENT_3D ( 'NONE', #2, #267, #175 ) ;
#247 = AXIS2_PLACEMENT_3D ( 'NONE', #216, #262, #48 ) ;
#248 = PRODUCT_DEFINITION_SHAPE ( 'NONE', 'NONE',  #210 ) ;
#249 = CARTESIAN_POINT ( 'NONE',  ( 1.899365848330664293E-13, 2.999999999999996003, 54.39999999999999858 ) ) ;
#250 = EDGE_LOOP ( 'NONE', ( #16 ) ) ;
#251 = ORIENTED_EDGE ( 'NONE', *, *, #68, .T. ) ;
#252 = EDGE_CURVE ( 'NONE', #63, #63, #97, .T. ) ;
#253 = CIRCLE ( 'NONE', #159, 1.249999999999999334 ) ;
#254 = CC_DESIGN_SECURITY_CLASSIFICATION ( #293, ( #64 ) ) ;
#255 = APPLICATION_CONTEXT ( 'configuration controlled 3d designs of mechanical parts and assemblies' ) ;
#256 = EDGE_LOOP ( 'NONE', ( #112 ) ) ;
#257 = CARTESIAN_POINT ( 'NONE',  ( 1.920314736363723345E-14, 1.249999999999999334, 5.500000000000000000 ) ) ;
#258 = CARTESIAN_POINT ( 'NONE',  ( 5.607668178315956501E-14, -1.948785266434775801E-15, 16.06099999999999994 ) ) ;
#259 = FACE_OUTER_BOUND ( 'NONE', #163, .T. ) ;
#260 = CARTESIAN_POINT ( 'NONE',  ( 5.607668178315956501E-14, 2.949999999999998845, 16.06099999999999994 ) ) ;
#261 = ADVANCED_FACE ( 'NONE', ( #213, #142 ), #301, .T. ) ;
#262 = DIRECTION ( 'NONE',  ( -3.491481338843133355E-15, 1.229300220569522999E-16, -1.000000000000000000 ) ) ;
#263 = CARTESIAN_POINT ( 'NONE',  ( 1.920314736363723472E-13, -6.735557395310442615E-15, 55.00000000000000000 ) ) ;
#264 = FACE_BOUND ( 'NONE', #65, .T. ) ;
#265 = VERTEX_POINT ( 'NONE', #53 ) ;
#266 = CC_DESIGN_PERSON_AND_ORGANIZATION_ASSIGNMENT ( #221, #153, ( #39 ) ) ;
#267 = DIRECTION ( 'NONE',  ( -3.491481338843133355E-15, 1.229300220569522999E-16, -1.000000000000000000 ) ) ;
#268 = CARTESIAN_POINT ( 'NONE',  ( 0.0000000000000000000, 0.0000000000000000000, 0.0000000000000000000 ) ) ;
#269 = ADVANCED_FACE ( 'NONE', ( #146, #235 ), #115, .T. ) ;
#270 = DATE_TIME_ROLE ( 'creation_date' ) ;
#271 = AXIS2_PLACEMENT_3D ( 'NONE', #257, #145, #24 ) ;
#272 = ORIENTED_EDGE ( 'NONE', *, *, #191, .F. ) ;
#273 = ADVANCED_FACE ( 'NONE', ( #49 ), #77, .T. ) ;
#274 = EDGE_LOOP ( 'NONE', ( #95 ) ) ;
#275 = PERSON_AND_ORGANIZATION ( #124, #70 ) ;
#276 = APPLICATION_CONTEXT ( 'configuration controlled 3d designs of mechanical parts and assemblies' ) ;
#277 = DIRECTION ( 'NONE',  ( 0.0000000000000000000, 1.000000000000000000, 0.0000000000000000000 ) ) ;
#278 = EDGE_LOOP ( 'NONE', ( #158 ) ) ;
#279 = DIRECTION ( 'NONE',  ( -3.491481338843133355E-15, 1.229300220569522999E-16, -1.000000000000000000 ) ) ;
#280 = VERTEX_POINT ( 'NONE', #260 ) ;
#281 = ADVANCED_FACE ( 'NONE', ( #21 ), #303, .T. ) ;
#282 = DIRECTION ( 'NONE',  ( -4.275831445896958607E-31, -1.000000000000000000, -1.224646799147353207E-16 ) ) ;
#283 = DIRECTION ( 'NONE',  ( -3.491481338843133355E-15, 1.229300220569522999E-16, -1.000000000000000000 ) ) ;
#284 = CIRCLE ( 'NONE', #219, 1.625000000000000000 ) ;
#285 = EDGE_CURVE ( 'NONE', #85, #85, #172, .T. ) ;
#286 = APPROVAL_STATUS ( 'not_yet_approved' ) ;
#287 = DIRECTION ( 'NONE',  ( -3.491481338843133355E-15, 1.224646799147353207E-16, -1.000000000000000000 ) ) ;
#288 =( LENGTH_UNIT ( ) NAMED_UNIT ( * ) SI_UNIT ( .MILLI., .METRE. ) );
#289 = AXIS2_PLACEMENT_3D ( 'NONE', #123, #46, #194 ) ;
#290 = APPROVAL_ROLE ( '' ) ;
#291 = EDGE_LOOP ( 'NONE', ( #234 ) ) ;
#292 = COORDINATED_UNIVERSAL_TIME_OFFSET ( 1, 0, .AHEAD. ) ;
#293 = SECURITY_CLASSIFICATION ( '', '', #226 ) ;
#294 = EDGE_LOOP ( 'NONE', ( #157 ) ) ;
#295 = CALENDAR_DATE ( 2021, 13, 12 ) ;
#296 = AXIS2_PLACEMENT_3D ( 'NONE', #233, #169, #96 ) ;
#297 = EDGE_LOOP ( 'NONE', ( #205 ) ) ;
#298 = ORIENTED_EDGE ( 'NONE', *, *, #68, .F. ) ;
#299 = DIRECTION ( 'NONE',  ( 4.292078779954237141E-31, 1.000000000000000000, 1.229300220569522999E-16 ) ) ;
#300 = AXIS2_PLACEMENT_3D ( 'NONE', #109, #22, #72 ) ;
#301 = CYLINDRICAL_SURFACE ( 'NONE', #43, 2.999999999999999112 ) ;
#302 = FACE_OUTER_BOUND ( 'NONE', #208, .T. ) ;
#303 = PLANE ( 'NONE',  #5 ) ;
ENDSEC;
END-ISO-10303-21;
