ISO-10303-21;
HEADER;
FILE_DESCRIPTION (( 'STEP AP203' ),
    '1' );
FILE_NAME ('388814.step',
    '2021-12-13T10:26:00',
    ( '' ),
    ( '' ),
    'SwSTEP 2.0',
    'SolidWorks 2019',
    '' );
FILE_SCHEMA (( 'CONFIG_CONTROL_DESIGN' ));
ENDSEC;

DATA;
#1 = DIRECTION ( 'NONE',  ( 4.275831445896958607E-31, 1.000000000000000000, 1.224646799147353207E-16 ) ) ;
#2 = ORIENTED_EDGE ( 'NONE', *, *, #179, .F. ) ;
#3 = VERTEX_POINT ( 'NONE', #191 ) ;
#4 = CARTESIAN_POINT ( 'NONE',  ( 4.515754487950944886E-14, -1.583913457557472169E-15, 12.93363489505916597 ) ) ;
#5 = FACE_OUTER_BOUND ( 'NONE', #280, .T. ) ;
#6 = CARTESIAN_POINT ( 'NONE',  ( 5.481625701983718737E-14, 2.949999999999998845, 15.69999999999999929 ) ) ;
#7 = EDGE_CURVE ( 'NONE', #298, #298, #30, .T. ) ;
#8 = CLOSED_SHELL ( 'NONE', ( #239, #45, #269 ) ) ;
#9 = AXIS2_PLACEMENT_3D ( 'NONE', #141, #202, #332 ) ;
#10 =( LENGTH_UNIT ( ) NAMED_UNIT ( * ) SI_UNIT ( .MILLI., .METRE. ) );
#11 = ORIENTED_EDGE ( 'NONE', *, *, #134, .F. ) ;
#12 = DIRECTION ( 'NONE',  ( -3.491481338843133355E-15, 1.224646799147353207E-16, -1.000000000000000000 ) ) ;
#13 = FACE_OUTER_BOUND ( 'NONE', #249, .T. ) ;
#14 = ORIENTED_EDGE ( 'NONE', *, *, #134, .T. ) ;
#15 = CONICAL_SURFACE ( 'NONE', #212, 2.950000000000000178, 0.2094395102393127317 ) ;
#16 = APPROVAL_ROLE ( '' ) ;
#17 = DIRECTION ( 'NONE',  ( 3.491481338843133355E-15, -1.224646799147353207E-16, 1.000000000000000000 ) ) ;
#18 = CALENDAR_DATE ( 2021, 13, 12 ) ;
#19 = CARTESIAN_POINT ( 'NONE',  ( 0.0000000000000000000, 0.0000000000000000000, 0.0000000000000000000 ) ) ;
#20 = EDGE_LOOP ( 'NONE', ( #75 ) ) ;
#21 = APPROVAL_ROLE ( '' ) ;
#22 = CLOSED_SHELL ( 'NONE', ( #71, #103, #29, #159, #215, #39, #258, #190, #169, #96, #320 ) ) ;
#23 = FACE_OUTER_BOUND ( 'NONE', #120, .T. ) ;
#24 = FACE_OUTER_BOUND ( 'NONE', #172, .T. ) ;
#25 = CYLINDRICAL_SURFACE ( 'NONE', #207, 2.950000000000000178 ) ;
#26 = DIRECTION ( 'NONE',  ( 4.275831445896958607E-31, 1.000000000000000000, 1.224646799147353454E-16 ) ) ;
#27 = DIRECTION ( 'NONE',  ( 0.0000000000000000000, -1.000000000000000000, 0.0000000000000000000 ) ) ;
#28 = VERTEX_POINT ( 'NONE', #32 ) ;
#29 = ADVANCED_FACE ( 'NONE', ( #67, #116 ), #133, .F. ) ;
#30 = CIRCLE ( 'NONE', #242, 1.624999999999999778 ) ;
#31 = AXIS2_PLACEMENT_3D ( 'NONE', #235, #132, #234 ) ;
#32 = CARTESIAN_POINT ( 'NONE',  ( 1.571166602479410010E-14, 0.9999999999999993339, 4.500000000000000000 ) ) ;
#33 = EDGE_LOOP ( 'NONE', ( #197 ) ) ;
#34 = DIRECTION ( 'NONE',  ( 4.275831445896958607E-31, 1.000000000000000000, 1.224646799147353207E-16 ) ) ;
#35 = CIRCLE ( 'NONE', #161, 1.043704798532385736 ) ;
#36 = AXIS2_PLACEMENT_3D ( 'NONE', #182, #50, #82 ) ;
#37 = SHAPE_DEFINITION_REPRESENTATION ( #333, #200 ) ;
#38 = DATE_AND_TIME ( #70, #305 ) ;
#39 = ADVANCED_FACE ( 'NONE', ( #192, #194 ), #15, .T. ) ;
#40 = ORIENTED_EDGE ( 'NONE', *, *, #51, .T. ) ;
#41 = CIRCLE ( 'NONE', #287, 0.9999999999999993339 ) ;
#42 = APPROVAL_STATUS ( 'not_yet_approved' ) ;
#43 = CC_DESIGN_SECURITY_CLASSIFICATION ( #211, ( #138 ) ) ;
#44 = ORIENTED_EDGE ( 'NONE', *, *, #114, .T. ) ;
#45 = ADVANCED_FACE ( 'NONE', ( #13, #175 ), #232, .T. ) ;
#46 = PERSON_AND_ORGANIZATION ( #209, #150 ) ;
#47 = CARTESIAN_POINT ( 'NONE',  ( 1.899365848330664293E-13, -6.662078587361600895E-15, 54.39999999999999858 ) ) ;
#48 = LOCAL_TIME ( 11, 26, 0.0000000000000000000, #259 ) ;
#49 = CARTESIAN_POINT ( 'NONE',  ( 1.571166602479410010E-14, -5.510910596163088569E-16, 4.500000000000000000 ) ) ;
#50 = DIRECTION ( 'NONE',  ( -3.491481338843133355E-15, 1.224646799147353207E-16, -1.000000000000000000 ) ) ;
#51 = EDGE_CURVE ( 'NONE', #189, #189, #316, .T. ) ;
#52 = DIRECTION ( 'NONE',  ( -3.491481338843133355E-15, 1.224646799147353207E-16, -1.000000000000000000 ) ) ;
#53 = DIRECTION ( 'NONE',  ( 0.0000000000000000000, 1.000000000000000000, 0.0000000000000000000 ) ) ;
#54 = AXIS2_PLACEMENT_3D ( 'NONE', #158, #308, #157 ) ;
#55 = MANIFOLD_SOLID_BREP ( 'Corps-Déplacer/Copier1[1]', #22 ) ;
#56 = APPROVAL ( #60, 'UNSPECIFIED' ) ;
#57 = DIRECTION ( 'NONE',  ( 1.000000000000000000, 0.0000000000000000000, 0.0000000000000000000 ) ) ;
#58 = MECHANICAL_CONTEXT ( 'NONE', #248, 'mechanical' ) ;
#59 = EDGE_LOOP ( 'NONE', ( #340 ) ) ;
#60 = APPROVAL_STATUS ( 'not_yet_approved' ) ;
#61 = EDGE_CURVE ( 'NONE', #225, #225, #272, .T. ) ;
#62 = EDGE_LOOP ( 'NONE', ( #113 ) ) ;
#63 = APPROVAL_ROLE ( '' ) ;
#64 = EDGE_LOOP ( 'NONE', ( #321 ) ) ;
#65 = APPLICATION_PROTOCOL_DEFINITION ( 'international standard', 'config_control_design', 1994, #248 ) ;
#66 = PERSON_AND_ORGANIZATION_ROLE ( 'creator' ) ;
#67 = FACE_OUTER_BOUND ( 'NONE', #326, .T. ) ;
#68 = PERSON_AND_ORGANIZATION ( #209, #150 ) ;
#69 = ORIENTED_EDGE ( 'NONE', *, *, #80, .F. ) ;
#70 = CALENDAR_DATE ( 2021, 13, 12 ) ;
#71 = ADVANCED_FACE ( 'NONE', ( #5 ), #322, .F. ) ;
#72 = CONICAL_SURFACE ( 'NONE', #214, 1.104108403438955222, 0.2094395102393138974 ) ;
#73 = CYLINDRICAL_SURFACE ( 'NONE', #187, 1.000000000000000000 ) ;
#74 = DIRECTION ( 'NONE',  ( 4.275831445896958607E-31, 1.000000000000000000, 1.224646799147353207E-16 ) ) ;
#75 = ORIENTED_EDGE ( 'NONE', *, *, #328, .T. ) ;
#76 = CIRCLE ( 'NONE', #92, 1.000000000000000000 ) ;
#77 = DIRECTION ( 'NONE',  ( -4.275831445896958607E-31, -1.000000000000000000, -1.224646799147353207E-16 ) ) ;
#78 = CARTESIAN_POINT ( 'NONE',  ( 0.0000000000000000000, 0.0000000000000000000, 0.0000000000000000000 ) ) ;
#79 = DIRECTION ( 'NONE',  ( 4.275831445896958607E-31, 1.000000000000000000, 1.224646799147353207E-16 ) ) ;
#80 = EDGE_CURVE ( 'NONE', #28, #28, #76, .T. ) ;
#81 = AXIS2_PLACEMENT_3D ( 'NONE', #201, #101, #315 ) ;
#82 = DIRECTION ( 'NONE',  ( 0.0000000000000000000, 1.000000000000000000, 0.0000000000000000000 ) ) ;
#83 = CARTESIAN_POINT ( 'NONE',  ( 2.339292497024899979E-14, 1.624999999999998890, 6.700000000000001066 ) ) ;
#84 = CONICAL_SURFACE ( 'NONE', #236, 2.400000000000003020, 0.7853981633974450594 ) ;
#85 = CIRCLE ( 'NONE', #251, 3.000000000000002220 ) ;
#86 = CARTESIAN_POINT ( 'NONE',  ( 0.0000000000000000000, 0.0000000000000000000, 0.0000000000000000000 ) ) ;
#87 = EDGE_LOOP ( 'NONE', ( #124 ) ) ;
#88 = CARTESIAN_POINT ( 'NONE',  ( 4.515754487950944886E-14, -1.583913457557472169E-15, 12.93363489505916597 ) ) ;
#89 = DIRECTION ( 'NONE',  ( 0.0000000000000000000, 1.000000000000000000, 0.0000000000000000000 ) ) ;
#90 = CC_DESIGN_DATE_AND_TIME_ASSIGNMENT ( #173, #256, ( #229 ) ) ;
#91 = PERSON_AND_ORGANIZATION_ROLE ( 'creator' ) ;
#92 = AXIS2_PLACEMENT_3D ( 'NONE', #168, #122, #178 ) ;
#93 = CC_DESIGN_APPROVAL ( #130, ( #138 ) ) ;
#94 = PERSON_AND_ORGANIZATION ( #209, #150 ) ;
#95 = EDGE_LOOP ( 'NONE', ( #290 ) ) ;
#96 = ADVANCED_FACE ( 'NONE', ( #206, #296 ), #84, .T. ) ;
#97 = DATE_AND_TIME ( #277, #273 ) ;
#98 = DIRECTION ( 'NONE',  ( 0.0000000000000000000, 1.000000000000000000, 0.0000000000000000000 ) ) ;
#99 = EDGE_LOOP ( 'NONE', ( #224 ) ) ;
#100 = AXIS2_PLACEMENT_3D ( 'NONE', #144, #252, #57 ) ;
#101 = DIRECTION ( 'NONE',  ( 3.491481338843133355E-15, -1.224646799147353207E-16, 1.000000000000000000 ) ) ;
#102 = FACE_OUTER_BOUND ( 'NONE', #87, .T. ) ;
#103 = ADVANCED_FACE ( 'NONE', ( #281, #324 ), #73, .T. ) ;
#104 = FACE_OUTER_BOUND ( 'NONE', #20, .T. ) ;
#105 = AXIS2_PLACEMENT_3D ( 'NONE', #19, #246, #74 ) ;
#106 = AXIS2_PLACEMENT_3D ( 'NONE', #216, #265, #217 ) ;
#107 = CARTESIAN_POINT ( 'NONE',  ( 0.0000000000000000000, 0.0000000000000000000, 0.0000000000000000000 ) ) ;
#108 = APPLICATION_CONTEXT ( 'configuration controlled 3d designs of mechanical parts and assemblies' ) ;
#109 = DIRECTION ( 'NONE',  ( 4.275831445896957731E-31, 1.000000000000000000, 1.224646799147353207E-16 ) ) ;
#110 = FACE_OUTER_BOUND ( 'NONE', #99, .T. ) ;
#111 = APPLICATION_PROTOCOL_DEFINITION ( 'international standard', 'config_control_design', 1994, #108 ) ;
#112 = LOCAL_TIME ( 11, 26, 0.0000000000000000000, #165 ) ;
#113 = ORIENTED_EDGE ( 'NONE', *, *, #114, .F. ) ;
#114 = EDGE_CURVE ( 'NONE', #195, #195, #35, .T. ) ;
#115 =( NAMED_UNIT ( * ) PLANE_ANGLE_UNIT ( ) SI_UNIT ( $, .RADIAN. ) );
#116 = FACE_OUTER_BOUND ( 'NONE', #148, .T. ) ;
#117 = DIRECTION ( 'NONE',  ( -3.491481338843133355E-15, 1.224646799147353207E-16, -1.000000000000000000 ) ) ;
#118 = CARTESIAN_POINT ( 'NONE',  ( 1.899365848330664293E-13, 2.999999999999995559, 54.39999999999999858 ) ) ;
#119 = AXIS2_PLACEMENT_3D ( 'NONE', #311, #313, #241 ) ;
#120 = EDGE_LOOP ( 'NONE', ( #230 ) ) ;
#121 = DIRECTION ( 'NONE',  ( 0.0000000000000000000, 1.000000000000000000, 0.0000000000000000000 ) ) ;
#122 = DIRECTION ( 'NONE',  ( -3.491481338843133355E-15, 1.224646799147353207E-16, -1.000000000000000000 ) ) ;
#123 = PERSON_AND_ORGANIZATION ( #209, #150 ) ;
#124 = ORIENTED_EDGE ( 'NONE', *, *, #205, .F. ) ;
#125 = PRODUCT_RELATED_PRODUCT_CATEGORY ( 'detail', '', ( #164 ) ) ;
#126 = SECURITY_CLASSIFICATION_LEVEL ( 'unclassified' ) ;
#127 = APPROVAL_DATE_TIME ( #97, #196 ) ;
#128 = CIRCLE ( 'NONE', #263, 1.000000000000000000 ) ;
#129 = DIRECTION ( 'NONE',  ( -3.491481338843133355E-15, 1.224646799147353207E-16, -1.000000000000000000 ) ) ;
#130 = APPROVAL ( #149, 'UNSPECIFIED' ) ;
#131 = DIRECTION ( 'NONE',  ( 3.491481338843133355E-15, -1.224646799147353207E-16, 1.000000000000000000 ) ) ;
#132 = DIRECTION ( 'NONE',  ( -3.491481338843133355E-15, 1.224646799147353207E-16, -1.000000000000000000 ) ) ;
#133 = TOROIDAL_SURFACE ( 'NONE', #119, 3.000000000000000000, 2.000000000000000000 ) ;
#134 = EDGE_CURVE ( 'NONE', #221, #221, #233, .T. ) ;
#135 = FACE_OUTER_BOUND ( 'NONE', #167, .T. ) ;
#136 = CYLINDRICAL_SURFACE ( 'NONE', #181, 2.999999999999998668 ) ;
#137 = PERSON_AND_ORGANIZATION ( #209, #150 ) ;
#138 = PRODUCT_DEFINITION_FORMATION_WITH_SPECIFIED_SOURCE ( 'ANY', '', #164, .NOT_KNOWN. ) ;
#139 = ORIENTED_EDGE ( 'NONE', *, *, #283, .T. ) ;
#140 = CARTESIAN_POINT ( 'NONE',  ( 2.339292497024899664E-14, -8.205133554287266562E-16, 6.700000000000000178 ) ) ;
#141 = CARTESIAN_POINT ( 'NONE',  ( 2.094888803305880013E-14, -7.347880794884119736E-16, 6.000000000000000000 ) ) ;
#142 = CARTESIAN_POINT ( 'NONE',  ( 4.515754487950944886E-14, 2.949999999999998845, 12.93363489505916597 ) ) ;
#143 = ORIENTED_EDGE ( 'NONE', *, *, #328, .F. ) ;
#144 = CARTESIAN_POINT ( 'NONE',  ( 0.0000000000000000000, 0.0000000000000000000, 0.0000000000000000000 ) ) ;
#145 = CC_DESIGN_PERSON_AND_ORGANIZATION_ASSIGNMENT ( #137, #240, ( #164 ) ) ;
#146 = AXIS2_PLACEMENT_3D ( 'NONE', #88, #12, #98 ) ;
#147 = PERSON_AND_ORGANIZATION ( #209, #150 ) ;
#148 = EDGE_LOOP ( 'NONE', ( #255 ) ) ;
#149 = APPROVAL_STATUS ( 'not_yet_approved' ) ;
#150 = ORGANIZATION ( 'UNSPECIFIED', 'UNSPECIFIED', '' ) ;
#151 = APPROVAL_PERSON_ORGANIZATION ( #123, #196, #21 ) ;
#152 = EDGE_CURVE ( 'NONE', #219, #219, #128, .T. ) ;
#153 = EDGE_LOOP ( 'NONE', ( #220 ) ) ;
#154 = DATE_TIME_ROLE ( 'classification_date' ) ;
#155 = CARTESIAN_POINT ( 'NONE',  ( 1.920314736363723472E-13, -6.735557395310442615E-15, 55.00000000000000000 ) ) ;
#156 = CIRCLE ( 'NONE', #294, 1.104108403438955222 ) ;
#157 = DIRECTION ( 'NONE',  ( -4.275831445896958607E-31, -1.000000000000000000, -1.224646799147353207E-16 ) ) ;
#158 = CARTESIAN_POINT ( 'NONE',  ( -2.031056553062953688E-31, 7.123987400201752754E-33, -5.817177169092142098E-17 ) ) ;
#159 = ADVANCED_FACE ( 'NONE', ( #341, #104 ), #72, .T. ) ;
#160 = FACE_OUTER_BOUND ( 'NONE', #226, .T. ) ;
#161 = AXIS2_PLACEMENT_3D ( 'NONE', #250, #300, #330 ) ;
#162 = CARTESIAN_POINT ( 'NONE',  ( 5.481625701983718737E-14, 4.461785353419020636E-32, 15.69999999999999929 ) ) ;
#163 = DIRECTION ( 'NONE',  ( -3.491481338843133355E-15, 1.224646799147353207E-16, -1.000000000000000000 ) ) ;
#164 = PRODUCT ( '388814', '388814', '', ( #58 ) ) ;
#165 = COORDINATED_UNIVERSAL_TIME_OFFSET ( 1, 0, .AHEAD. ) ;
#166 = CIRCLE ( 'NONE', #31, 2.999999999999995115 ) ;
#167 = EDGE_LOOP ( 'NONE', ( #302 ) ) ;
#168 = CARTESIAN_POINT ( 'NONE',  ( 1.571166602479410010E-14, -5.510910596163088569E-16, 4.500000000000000000 ) ) ;
#169 = ADVANCED_FACE ( 'NONE', ( #110, #334 ), #136, .T. ) ;
#170 = DIRECTION ( 'NONE',  ( -3.491481338843133355E-15, 1.224646799147353207E-16, -1.000000000000000000 ) ) ;
#171 = MANIFOLD_SOLID_BREP ( 'Corps-Déplacer/Copier1[2]', #8 ) ;
#172 = EDGE_LOOP ( 'NONE', ( #14 ) ) ;
#173 = DATE_AND_TIME ( #177, #343 ) ;
#174 =( GEOMETRIC_REPRESENTATION_CONTEXT ( 3 ) GLOBAL_UNCERTAINTY_ASSIGNED_CONTEXT ( ( #186 ) ) GLOBAL_UNIT_ASSIGNED_CONTEXT ( ( #10, #115, #245 ) ) REPRESENTATION_CONTEXT ( 'NONE', 'WORKASPACE' ) );
#175 = FACE_OUTER_BOUND ( 'NONE', #95, .T. ) ;
#176 = DATE_AND_TIME ( #231, #112 ) ;
#177 = CALENDAR_DATE ( 2021, 13, 12 ) ;
#178 = DIRECTION ( 'NONE',  ( 0.0000000000000000000, 1.000000000000000000, 0.0000000000000000000 ) ) ;
#179 = EDGE_CURVE ( 'NONE', #3, #3, #41, .T. ) ;
#180 = DIRECTION ( 'NONE',  ( 0.0000000000000000000, 1.000000000000000000, 0.0000000000000000000 ) ) ;
#181 = AXIS2_PLACEMENT_3D ( 'NONE', #107, #218, #26 ) ;
#182 = CARTESIAN_POINT ( 'NONE',  ( 1.920314736363723472E-13, -6.735557395310442615E-15, 55.00000000000000000 ) ) ;
#183 = CC_DESIGN_DATE_AND_TIME_ASSIGNMENT ( #38, #154, ( #211 ) ) ;
#184 = DIRECTION ( 'NONE',  ( -3.491481338843133355E-15, 1.224646799147353207E-16, -1.000000000000000000 ) ) ;
#185 = FACE_OUTER_BOUND ( 'NONE', #228, .T. ) ;
#186 = UNCERTAINTY_MEASURE_WITH_UNIT (LENGTH_MEASURE( 1.000000000000000082E-05 ), #10, 'distance_accuracy_value', 'NONE');
#187 = AXIS2_PLACEMENT_3D ( 'NONE', #86, #275, #34 ) ;
#188 = AXIS2_PLACEMENT_3D ( 'NONE', #262, #131, #286 ) ;
#189 = VERTEX_POINT ( 'NONE', #142 ) ;
#190 = ADVANCED_FACE ( 'NONE', ( #309, #23 ), #267, .F. ) ;
#191 = CARTESIAN_POINT ( 'NONE',  ( 2.137183397710479182E-32, 0.9999999999999993339, 6.121136532892404794E-18 ) ) ;
#192 = FACE_BOUND ( 'NONE', #59, .T. ) ;
#193 = CARTESIAN_POINT ( 'NONE',  ( 1.920314736363723472E-13, 2.399999999999995914, 55.00000000000000000 ) ) ;
#194 = FACE_OUTER_BOUND ( 'NONE', #213, .T. ) ;
#195 = VERTEX_POINT ( 'NONE', #319 ) ;
#196 = APPROVAL ( #42, 'UNSPECIFIED' ) ;
#197 = ORIENTED_EDGE ( 'NONE', *, *, #283, .F. ) ;
#198 = VERTEX_POINT ( 'NONE', #288 ) ;
#199 = CARTESIAN_POINT ( 'NONE',  ( 2.339292497024899979E-14, -8.205133554287267548E-16, 6.700000000000001066 ) ) ;
#200 = ADVANCED_BREP_SHAPE_REPRESENTATION ( '388814', ( #55, #171, #100 ), #174 ) ;
#201 = CARTESIAN_POINT ( 'NONE',  ( 1.571166602479410010E-14, 7.498798913309279828E-33, 4.500000000000000000 ) ) ;
#202 = DIRECTION ( 'NONE',  ( -3.491481338843133355E-15, 1.224646799147353207E-16, -1.000000000000000000 ) ) ;
#203 = PERSON_AND_ORGANIZATION_ROLE ( 'design_supplier' ) ;
#204 = APPROVAL_PERSON_ORGANIZATION ( #261, #130, #16 ) ;
#205 = EDGE_CURVE ( 'NONE', #342, #342, #257, .T. ) ;
#206 = FACE_OUTER_BOUND ( 'NONE', #33, .T. ) ;
#207 = AXIS2_PLACEMENT_3D ( 'NONE', #78, #268, #79 ) ;
#208 = PLANE ( 'NONE',  #317 ) ;
#209 = PERSON ( 'UNSPECIFIED', 'UNSPECIFIED', 'UNSPECIFIED', ('UNSPECIFIED'), ('UNSPECIFIED'), ('UNSPECIFIED') ) ;
#210 = DIRECTION ( 'NONE',  ( 3.491481338843133355E-15, -1.224646799147353207E-16, 1.000000000000000000 ) ) ;
#211 = SECURITY_CLASSIFICATION ( '', '', #126 ) ;
#212 = AXIS2_PLACEMENT_3D ( 'NONE', #4, #17, #297 ) ;
#213 = EDGE_LOOP ( 'NONE', ( #40 ) ) ;
#214 = AXIS2_PLACEMENT_3D ( 'NONE', #285, #339, #27 ) ;
#215 = ADVANCED_FACE ( 'NONE', ( #337, #135 ), #284, .F. ) ;
#216 = CARTESIAN_POINT ( 'NONE',  ( 2.339292497024899979E-14, -8.575614248302710741E-32, 6.700000000000001066 ) ) ;
#217 = DIRECTION ( 'NONE',  ( -4.275831445896958607E-31, -1.000000000000000000, -1.224646799147353207E-16 ) ) ;
#218 = DIRECTION ( 'NONE',  ( -3.491481338843133355E-15, 1.224646799147353207E-16, -1.000000000000000000 ) ) ;
#219 = VERTEX_POINT ( 'NONE', #274 ) ;
#220 = ORIENTED_EDGE ( 'NONE', *, *, #179, .T. ) ;
#221 = VERTEX_POINT ( 'NONE', #6 ) ;
#222 = DIRECTION ( 'NONE',  ( -3.491481338843133355E-15, 1.224646799147353207E-16, -1.000000000000000000 ) ) ;
#223 = VERTEX_POINT ( 'NONE', #289 ) ;
#224 = ORIENTED_EDGE ( 'NONE', *, *, #292, .F. ) ;
#225 = VERTEX_POINT ( 'NONE', #243 ) ;
#226 = EDGE_LOOP ( 'NONE', ( #295 ) ) ;
#227 = APPROVAL_DATE_TIME ( #176, #56 ) ;
#228 = EDGE_LOOP ( 'NONE', ( #69 ) ) ;
#229 = PRODUCT_DEFINITION ( 'UNKNOWN', '', #138, #336 ) ;
#230 = ORIENTED_EDGE ( 'NONE', *, *, #292, .T. ) ;
#231 = CALENDAR_DATE ( 2021, 13, 12 ) ;
#232 = CYLINDRICAL_SURFACE ( 'NONE', #105, 0.9999999999999995559 ) ;
#233 = CIRCLE ( 'NONE', #276, 2.950000000000000178 ) ;
#234 = DIRECTION ( 'NONE',  ( 0.0000000000000000000, 1.000000000000000000, 0.0000000000000000000 ) ) ;
#235 = CARTESIAN_POINT ( 'NONE',  ( 5.481625701983718737E-14, -1.922695474661344271E-15, 15.69999999999999929 ) ) ;
#236 = AXIS2_PLACEMENT_3D ( 'NONE', #155, #117, #89 ) ;
#237 = FACE_OUTER_BOUND ( 'NONE', #153, .T. ) ;
#238 = CARTESIAN_POINT ( 'NONE',  ( -4.062113106125907377E-31, 1.424797480040350551E-32, -1.163435433818428420E-16 ) ) ;
#239 = ADVANCED_FACE ( 'NONE', ( #237 ), #307, .F. ) ;
#240 = PERSON_AND_ORGANIZATION_ROLE ( 'design_owner' ) ;
#241 = DIRECTION ( 'NONE',  ( 4.382052623509996821E-31, 1.000000000000000000, 1.224646799147353207E-16 ) ) ;
#242 = AXIS2_PLACEMENT_3D ( 'NONE', #199, #222, #121 ) ;
#243 = CARTESIAN_POINT ( 'NONE',  ( 2.094888803305880013E-14, 0.9999999999999993339, 6.000000000000000000 ) ) ;
#244 = CC_DESIGN_PERSON_AND_ORGANIZATION_ASSIGNMENT ( #68, #91, ( #138 ) ) ;
#245 =( NAMED_UNIT ( * ) SI_UNIT ( $, .STERADIAN. ) SOLID_ANGLE_UNIT ( ) );
#246 = DIRECTION ( 'NONE',  ( -3.491481338843133355E-15, 1.224646799147353207E-16, -1.000000000000000000 ) ) ;
#247 = DIRECTION ( 'NONE',  ( 0.0000000000000000000, 1.000000000000000000, 0.0000000000000000000 ) ) ;
#248 = APPLICATION_CONTEXT ( 'configuration controlled 3d designs of mechanical parts and assemblies' ) ;
#249 = EDGE_LOOP ( 'NONE', ( #2 ) ) ;
#250 = CARTESIAN_POINT ( 'NONE',  ( 2.240072761029381388E-14, -7.857117568214668939E-16, 6.415823381635505918 ) ) ;
#251 = AXIS2_PLACEMENT_3D ( 'NONE', #47, #129, #53 ) ;
#252 = DIRECTION ( 'NONE',  ( 0.0000000000000000000, 0.0000000000000000000, 1.000000000000000000 ) ) ;
#253 = EDGE_LOOP ( 'NONE', ( #11 ) ) ;
#254 = DATE_AND_TIME ( #18, #48 ) ;
#255 = ORIENTED_EDGE ( 'NONE', *, *, #61, .F. ) ;
#256 = DATE_TIME_ROLE ( 'creation_date' ) ;
#257 = CIRCLE ( 'NONE', #36, 2.400000000000003020 ) ;
#258 = ADVANCED_FACE ( 'NONE', ( #160, #24 ), #25, .T. ) ;
#259 = COORDINATED_UNIVERSAL_TIME_OFFSET ( 1, 0, .AHEAD. ) ;
#260 = ORIENTED_EDGE ( 'NONE', *, *, #152, .F. ) ;
#261 = PERSON_AND_ORGANIZATION ( #209, #150 ) ;
#262 = CARTESIAN_POINT ( 'NONE',  ( 1.571166602479410010E-14, 7.498798913309279828E-33, 4.500000000000000000 ) ) ;
#263 = AXIS2_PLACEMENT_3D ( 'NONE', #49, #270, #338 ) ;
#264 = APPROVAL_PERSON_ORGANIZATION ( #291, #56, #63 ) ;
#265 = DIRECTION ( 'NONE',  ( 3.491481338843133355E-15, -1.224646799147353207E-16, 1.000000000000000000 ) ) ;
#266 = CC_DESIGN_PERSON_AND_ORGANIZATION_ASSIGNMENT ( #147, #299, ( #211 ) ) ;
#267 = PLANE ( 'NONE',  #310 ) ;
#268 = DIRECTION ( 'NONE',  ( -3.491481338843133355E-15, 1.224646799147353207E-16, -1.000000000000000000 ) ) ;
#269 = ADVANCED_FACE ( 'NONE', ( #185 ), #282, .T. ) ;
#270 = DIRECTION ( 'NONE',  ( -3.491481338843133355E-15, 1.224646799147353207E-16, -1.000000000000000000 ) ) ;
#271 = VERTEX_POINT ( 'NONE', #118 ) ;
#272 = CIRCLE ( 'NONE', #9, 1.000000000000000000 ) ;
#273 = LOCAL_TIME ( 11, 26, 0.0000000000000000000, #329 ) ;
#274 = CARTESIAN_POINT ( 'NONE',  ( 1.571166602479410010E-14, 0.9999999999999993339, 4.500000000000000000 ) ) ;
#275 = DIRECTION ( 'NONE',  ( -3.491481338843133355E-15, 1.224646799147353207E-16, -1.000000000000000000 ) ) ;
#276 = AXIS2_PLACEMENT_3D ( 'NONE', #306, #184, #180 ) ;
#277 = CALENDAR_DATE ( 2021, 13, 12 ) ;
#278 = CC_DESIGN_PERSON_AND_ORGANIZATION_ASSIGNMENT ( #46, #66, ( #229 ) ) ;
#279 = COORDINATED_UNIVERSAL_TIME_OFFSET ( 1, 0, .AHEAD. ) ;
#280 = EDGE_LOOP ( 'NONE', ( #331 ) ) ;
#281 = FACE_OUTER_BOUND ( 'NONE', #314, .T. ) ;
#282 = PLANE ( 'NONE',  #188 ) ;
#283 = EDGE_CURVE ( 'NONE', #271, #271, #85, .T. ) ;
#284 = PLANE ( 'NONE',  #106 ) ;
#285 = CARTESIAN_POINT ( 'NONE',  ( 2.339292497024899664E-14, -8.205133554287266562E-16, 6.700000000000000178 ) ) ;
#286 = DIRECTION ( 'NONE',  ( -4.275831445896958607E-31, -1.000000000000000000, -1.224646799147353207E-16 ) ) ;
#287 = AXIS2_PLACEMENT_3D ( 'NONE', #238, #52, #109 ) ;
#288 = CARTESIAN_POINT ( 'NONE',  ( 5.481625701983718737E-14, 2.999999999999993339, 15.69999999999999929 ) ) ;
#289 = CARTESIAN_POINT ( 'NONE',  ( 2.339292497024899664E-14, 1.104108403438954333, 6.700000000000000178 ) ) ;
#290 = ORIENTED_EDGE ( 'NONE', *, *, #80, .T. ) ;
#291 = PERSON_AND_ORGANIZATION ( #209, #150 ) ;
#292 = EDGE_CURVE ( 'NONE', #198, #198, #166, .T. ) ;
#293 = EDGE_LOOP ( 'NONE', ( #139 ) ) ;
#294 = AXIS2_PLACEMENT_3D ( 'NONE', #140, #163, #247 ) ;
#295 = ORIENTED_EDGE ( 'NONE', *, *, #51, .F. ) ;
#296 = FACE_BOUND ( 'NONE', #64, .T. ) ;
#297 = DIRECTION ( 'NONE',  ( 0.0000000000000000000, -1.000000000000000000, 0.0000000000000000000 ) ) ;
#298 = VERTEX_POINT ( 'NONE', #83 ) ;
#299 = PERSON_AND_ORGANIZATION_ROLE ( 'classification_officer' ) ;
#300 = DIRECTION ( 'NONE',  ( -3.491481338843133355E-15, 1.224646799147353207E-16, -1.000000000000000000 ) ) ;
#301 = CC_DESIGN_APPROVAL ( #56, ( #229 ) ) ;
#302 = ORIENTED_EDGE ( 'NONE', *, *, #7, .T. ) ;
#303 = APPROVAL_DATE_TIME ( #254, #130 ) ;
#304 = CARTESIAN_POINT ( 'NONE',  ( 1.920314736363723472E-13, 1.799711739194220919E-32, 55.00000000000000000 ) ) ;
#305 = LOCAL_TIME ( 11, 26, 0.0000000000000000000, #279 ) ;
#306 = CARTESIAN_POINT ( 'NONE',  ( 5.481625701983718737E-14, -1.922695474661344271E-15, 15.69999999999999929 ) ) ;
#307 = PLANE ( 'NONE',  #54 ) ;
#308 = DIRECTION ( 'NONE',  ( 3.491481338843133355E-15, -1.224646799147353207E-16, 1.000000000000000000 ) ) ;
#309 = FACE_BOUND ( 'NONE', #253, .T. ) ;
#310 = AXIS2_PLACEMENT_3D ( 'NONE', #162, #210, #77 ) ;
#311 = CARTESIAN_POINT ( 'NONE',  ( 2.094888803305880013E-14, -8.673617379884035472E-16, 6.000000000000000000 ) ) ;
#312 = CC_DESIGN_PERSON_AND_ORGANIZATION_ASSIGNMENT ( #94, #203, ( #138 ) ) ;
#313 = DIRECTION ( 'NONE',  ( -3.491481338843133355E-15, 1.224646799147353207E-16, -1.000000000000000000 ) ) ;
#314 = EDGE_LOOP ( 'NONE', ( #260 ) ) ;
#315 = DIRECTION ( 'NONE',  ( -4.275831445896958607E-31, -1.000000000000000000, -1.224646799147353207E-16 ) ) ;
#316 = CIRCLE ( 'NONE', #146, 2.950000000000000178 ) ;
#317 = AXIS2_PLACEMENT_3D ( 'NONE', #304, #170, #1 ) ;
#318 = CC_DESIGN_APPROVAL ( #196, ( #211 ) ) ;
#319 = CARTESIAN_POINT ( 'NONE',  ( 2.240072761029381388E-14, 1.043704798532384848, 6.415823381635505918 ) ) ;
#320 = ADVANCED_FACE ( 'NONE', ( #102 ), #208, .F. ) ;
#321 = ORIENTED_EDGE ( 'NONE', *, *, #205, .T. ) ;
#322 = PLANE ( 'NONE',  #81 ) ;
#323 = EDGE_LOOP ( 'NONE', ( #143 ) ) ;
#324 = FACE_OUTER_BOUND ( 'NONE', #327, .T. ) ;
#325 = COORDINATED_UNIVERSAL_TIME_OFFSET ( 1, 0, .AHEAD. ) ;
#326 = EDGE_LOOP ( 'NONE', ( #44 ) ) ;
#327 = EDGE_LOOP ( 'NONE', ( #335 ) ) ;
#328 = EDGE_CURVE ( 'NONE', #223, #223, #156, .T. ) ;
#329 = COORDINATED_UNIVERSAL_TIME_OFFSET ( 1, 0, .AHEAD. ) ;
#330 = DIRECTION ( 'NONE',  ( 0.0000000000000000000, 1.000000000000000000, 0.0000000000000000000 ) ) ;
#331 = ORIENTED_EDGE ( 'NONE', *, *, #152, .T. ) ;
#332 = DIRECTION ( 'NONE',  ( 0.0000000000000000000, 1.000000000000000000, 0.0000000000000000000 ) ) ;
#333 = PRODUCT_DEFINITION_SHAPE ( 'NONE', 'NONE',  #229 ) ;
#334 = FACE_OUTER_BOUND ( 'NONE', #293, .T. ) ;
#335 = ORIENTED_EDGE ( 'NONE', *, *, #61, .T. ) ;
#336 = DESIGN_CONTEXT ( 'detailed design', #108, 'design' ) ;
#337 = FACE_BOUND ( 'NONE', #323, .T. ) ;
#338 = DIRECTION ( 'NONE',  ( 0.0000000000000000000, 1.000000000000000000, 0.0000000000000000000 ) ) ;
#339 = DIRECTION ( 'NONE',  ( 3.491481338843133355E-15, -1.224646799147353207E-16, 1.000000000000000000 ) ) ;
#340 = ORIENTED_EDGE ( 'NONE', *, *, #7, .F. ) ;
#341 = FACE_BOUND ( 'NONE', #62, .T. ) ;
#342 = VERTEX_POINT ( 'NONE', #193 ) ;
#343 = LOCAL_TIME ( 11, 26, 0.0000000000000000000, #325 ) ;
ENDSEC;
END-ISO-10303-21;
