ISO-10303-21;
HEADER;
FILE_DESCRIPTION (( 'STEP AP203' ),
    '1' );
FILE_NAME ('388813.step',
    '2021-12-13T10:26:00',
    ( '' ),
    ( '' ),
    'SwSTEP 2.0',
    'SolidWorks 2019',
    '' );
FILE_SCHEMA (( 'CONFIG_CONTROL_DESIGN' ));
ENDSEC;

DATA;
#1 = CARTESIAN_POINT ( 'NONE',  ( 4.515754487950944886E-14, -1.583913457557472169E-15, 12.93363489505916597 ) ) ;
#2 = CLOSED_SHELL ( 'NONE', ( #307, #133, #36 ) ) ;
#3 = FACE_BOUND ( 'NONE', #128, .T. ) ;
#4 = CC_DESIGN_PERSON_AND_ORGANIZATION_ASSIGNMENT ( #147, #94, ( #278 ) ) ;
#5 = DATE_TIME_ROLE ( 'creation_date' ) ;
#6 = APPROVAL_ROLE ( '' ) ;
#7 = EDGE_CURVE ( 'NONE', #96, #96, #250, .T. ) ;
#8 = CALENDAR_DATE ( 2021, 13, 12 ) ;
#9 = ORIENTED_EDGE ( 'NONE', *, *, #7, .F. ) ;
#10 = DIRECTION ( 'NONE',  ( 0.0000000000000000000, 1.000000000000000000, 0.0000000000000000000 ) ) ;
#11 = CIRCLE ( 'NONE', #239, 0.9499999999999994005 ) ;
#12 = CALENDAR_DATE ( 2021, 13, 12 ) ;
#13 = ORIENTED_EDGE ( 'NONE', *, *, #263, .F. ) ;
#14 = APPROVAL_PERSON_ORGANIZATION ( #295, #243, #89 ) ;
#15 =( NAMED_UNIT ( * ) PLANE_ANGLE_UNIT ( ) SI_UNIT ( $, .RADIAN. ) );
#16 = ADVANCED_FACE ( 'NONE', ( #305, #76 ), #178, .T. ) ;
#17 = DIRECTION ( 'NONE',  ( -3.491481338843133355E-15, 1.224646799147353207E-16, -1.000000000000000000 ) ) ;
#18 = DIRECTION ( 'NONE',  ( -3.491481338843133355E-15, 1.224646799147353207E-16, -1.000000000000000000 ) ) ;
#19 = CARTESIAN_POINT ( 'NONE',  ( 1.899365848330664293E-13, 2.999999999999995559, 54.39999999999999858 ) ) ;
#20 = DIRECTION ( 'NONE',  ( -3.491481338843133355E-15, 1.224646799147353207E-16, -1.000000000000000000 ) ) ;
#21 = CARTESIAN_POINT ( 'NONE',  ( 2.339292497024899979E-14, -8.205133554287267548E-16, 6.700000000000001066 ) ) ;
#22 = ORIENTED_EDGE ( 'NONE', *, *, #72, .F. ) ;
#23 = PLANE ( 'NONE',  #294 ) ;
#24 = DIRECTION ( 'NONE',  ( -3.491481338843133355E-15, 1.224646799147353207E-16, -1.000000000000000000 ) ) ;
#25 = DIRECTION ( 'NONE',  ( 0.0000000000000000000, 1.000000000000000000, 0.0000000000000000000 ) ) ;
#26 = ORIENTED_EDGE ( 'NONE', *, *, #149, .T. ) ;
#27 = PLANE ( 'NONE',  #248 ) ;
#28 = DIRECTION ( 'NONE',  ( 3.491481338843133355E-15, -1.224646799147353207E-16, 1.000000000000000000 ) ) ;
#29 = AXIS2_PLACEMENT_3D ( 'NONE', #268, #265, #61 ) ;
#30 = CARTESIAN_POINT ( 'NONE',  ( 2.339292497024899979E-14, -8.205133554287267548E-16, 6.700000000000001066 ) ) ;
#31 = ADVANCED_FACE ( 'NONE', ( #68 ), #341, .F. ) ;
#32 = LOCAL_TIME ( 11, 26, 0.0000000000000000000, #64 ) ;
#33 = APPLICATION_PROTOCOL_DEFINITION ( 'international standard', 'config_control_design', 1994, #48 ) ;
#34 = AXIS2_PLACEMENT_3D ( 'NONE', #153, #100, #202 ) ;
#35 = DATE_TIME_ROLE ( 'classification_date' ) ;
#36 = ADVANCED_FACE ( 'NONE', ( #262 ), #338, .T. ) ;
#37 = UNCERTAINTY_MEASURE_WITH_UNIT (LENGTH_MEASURE( 1.000000000000000082E-05 ), #251, 'distance_accuracy_value', 'NONE');
#38 = PERSON_AND_ORGANIZATION ( #40, #53 ) ;
#39 = DESIGN_CONTEXT ( 'detailed design', #48, 'design' ) ;
#40 = PERSON ( 'UNSPECIFIED', 'UNSPECIFIED', 'UNSPECIFIED', ('UNSPECIFIED'), ('UNSPECIFIED'), ('UNSPECIFIED') ) ;
#41 = VERTEX_POINT ( 'NONE', #223 ) ;
#42 = CIRCLE ( 'NONE', #191, 2.950000000000000178 ) ;
#43 = ADVANCED_FACE ( 'NONE', ( #289, #256 ), #170, .T. ) ;
#44 = PERSON_AND_ORGANIZATION_ROLE ( 'design_owner' ) ;
#45 = CC_DESIGN_PERSON_AND_ORGANIZATION_ASSIGNMENT ( #188, #321, ( #154 ) ) ;
#46 = DIRECTION ( 'NONE',  ( 0.0000000000000000000, 1.000000000000000000, 0.0000000000000000000 ) ) ;
#47 = DIRECTION ( 'NONE',  ( 0.0000000000000000000, 1.000000000000000000, 0.0000000000000000000 ) ) ;
#48 = APPLICATION_CONTEXT ( 'configuration controlled 3d designs of mechanical parts and assemblies' ) ;
#49 = DIRECTION ( 'NONE',  ( 3.491481338843133355E-15, -1.224646799147353207E-16, 1.000000000000000000 ) ) ;
#50 = ORIENTED_EDGE ( 'NONE', *, *, #313, .T. ) ;
#51 = ORIENTED_EDGE ( 'NONE', *, *, #115, .F. ) ;
#52 = CARTESIAN_POINT ( 'NONE',  ( 1.920314736363723472E-13, -6.735557395310442615E-15, 55.00000000000000000 ) ) ;
#53 = ORGANIZATION ( 'UNSPECIFIED', 'UNSPECIFIED', '' ) ;
#54 = DIRECTION ( 'NONE',  ( -3.491481338843133355E-15, 1.224646799147353207E-16, -1.000000000000000000 ) ) ;
#55 = DIRECTION ( 'NONE',  ( 3.491481338843133355E-15, -1.224646799147353207E-16, 1.000000000000000000 ) ) ;
#56 = EDGE_LOOP ( 'NONE', ( #231 ) ) ;
#57 = CARTESIAN_POINT ( 'NONE',  ( -3.848321533831060235E-31, 1.349809490907257944E-32, -1.102203093861060772E-16 ) ) ;
#58 = ADVANCED_FACE ( 'NONE', ( #102, #74 ), #329, .F. ) ;
#59 = PLANE ( 'NONE',  #29 ) ;
#60 = ADVANCED_FACE ( 'NONE', ( #230, #222 ), #135, .T. ) ;
#61 = DIRECTION ( 'NONE',  ( -4.275831445896958607E-31, -1.000000000000000000, -1.224646799147353207E-16 ) ) ;
#62 = CC_DESIGN_DATE_AND_TIME_ASSIGNMENT ( #195, #5, ( #278 ) ) ;
#63 = AXIS2_PLACEMENT_3D ( 'NONE', #69, #169, #284 ) ;
#64 = COORDINATED_UNIVERSAL_TIME_OFFSET ( 1, 0, .AHEAD. ) ;
#65 = CC_DESIGN_APPROVAL ( #243, ( #278 ) ) ;
#66 = VERTEX_POINT ( 'NONE', #200 ) ;
#67 = APPROVAL_STATUS ( 'not_yet_approved' ) ;
#68 = FACE_OUTER_BOUND ( 'NONE', #258, .T. ) ;
#69 = CARTESIAN_POINT ( 'NONE',  ( 0.0000000000000000000, 0.0000000000000000000, 0.0000000000000000000 ) ) ;
#70 = DIRECTION ( 'NONE',  ( 4.275831445896958607E-31, 1.000000000000000000, 1.224646799147353207E-16 ) ) ;
#71 = EDGE_LOOP ( 'NONE', ( #283 ) ) ;
#72 = EDGE_CURVE ( 'NONE', #198, #198, #233, .T. ) ;
#73 = EDGE_LOOP ( 'NONE', ( #296 ) ) ;
#74 = FACE_OUTER_BOUND ( 'NONE', #249, .T. ) ;
#75 = AXIS2_PLACEMENT_3D ( 'NONE', #186, #292, #136 ) ;
#76 = FACE_OUTER_BOUND ( 'NONE', #336, .T. ) ;
#77 = AXIS2_PLACEMENT_3D ( 'NONE', #281, #17, #125 ) ;
#78 = DIRECTION ( 'NONE',  ( -3.491481338843133355E-15, 1.224646799147353207E-16, -1.000000000000000000 ) ) ;
#79 = APPROVAL_PERSON_ORGANIZATION ( #214, #85, #6 ) ;
#80 = ORIENTED_EDGE ( 'NONE', *, *, #7, .T. ) ;
#81 = EDGE_LOOP ( 'NONE', ( #155 ) ) ;
#82 = DIRECTION ( 'NONE',  ( -3.491481338843133355E-15, 1.224646799147353207E-16, -1.000000000000000000 ) ) ;
#83 = ORIENTED_EDGE ( 'NONE', *, *, #313, .F. ) ;
#84 = DIRECTION ( 'NONE',  ( -3.491481338843133355E-15, 1.224646799147353207E-16, -1.000000000000000000 ) ) ;
#85 = APPROVAL ( #141, 'UNSPECIFIED' ) ;
#86 = ORIENTED_EDGE ( 'NONE', *, *, #115, .T. ) ;
#87 = DIRECTION ( 'NONE',  ( -3.491481338843133355E-15, 1.224646799147353207E-16, -1.000000000000000000 ) ) ;
#88 = DIRECTION ( 'NONE',  ( 0.0000000000000000000, 1.000000000000000000, 0.0000000000000000000 ) ) ;
#89 = APPROVAL_ROLE ( '' ) ;
#90 = AXIS2_PLACEMENT_3D ( 'NONE', #21, #279, #10 ) ;
#91 = DATE_AND_TIME ( #319, #92 ) ;
#92 = LOCAL_TIME ( 11, 26, 0.0000000000000000000, #215 ) ;
#93 = VERTEX_POINT ( 'NONE', #328 ) ;
#94 = PERSON_AND_ORGANIZATION_ROLE ( 'creator' ) ;
#95 = PLANE ( 'NONE',  #165 ) ;
#96 = VERTEX_POINT ( 'NONE', #19 ) ;
#97 = DIRECTION ( 'NONE',  ( 3.491481338843133355E-15, -1.224646799147353207E-16, 1.000000000000000000 ) ) ;
#98 = VERTEX_POINT ( 'NONE', #324 ) ;
#99 = EDGE_LOOP ( 'NONE', ( #131 ) ) ;
#100 = DIRECTION ( 'NONE',  ( -3.491481338843133355E-15, 1.224646799147353207E-16, -1.000000000000000000 ) ) ;
#101 = EDGE_LOOP ( 'NONE', ( #286 ) ) ;
#102 = FACE_OUTER_BOUND ( 'NONE', #81, .T. ) ;
#103 = AXIS2_PLACEMENT_3D ( 'NONE', #132, #185, #183 ) ;
#104 = FACE_OUTER_BOUND ( 'NONE', #158, .T. ) ;
#105 = FACE_BOUND ( 'NONE', #264, .T. ) ;
#106 = EDGE_LOOP ( 'NONE', ( #80 ) ) ;
#107 = CARTESIAN_POINT ( 'NONE',  ( -1.924160766915530117E-31, 6.749047454536289720E-33, -5.511015469305303858E-17 ) ) ;
#108 = EDGE_LOOP ( 'NONE', ( #9 ) ) ;
#109 = FACE_OUTER_BOUND ( 'NONE', #106, .T. ) ;
#110 = ADVANCED_FACE ( 'NONE', ( #309 ), #23, .F. ) ;
#111 = APPROVAL_PERSON_ORGANIZATION ( #119, #120, #317 ) ;
#112 = MANIFOLD_SOLID_BREP ( 'Corps-Déplacer/Copier1[2]', #2 ) ;
#113 = PERSON_AND_ORGANIZATION ( #40, #53 ) ;
#114 = COORDINATED_UNIVERSAL_TIME_OFFSET ( 1, 0, .AHEAD. ) ;
#115 = EDGE_CURVE ( 'NONE', #123, #123, #315, .T. ) ;
#116 = CALENDAR_DATE ( 2021, 13, 12 ) ;
#117 = AXIS2_PLACEMENT_3D ( 'NONE', #171, #194, #47 ) ;
#118 = CARTESIAN_POINT ( 'NONE',  ( 5.481625701983718737E-14, 2.999999999999993339, 15.69999999999999929 ) ) ;
#119 = PERSON_AND_ORGANIZATION ( #40, #53 ) ;
#120 = APPROVAL ( #276, 'UNSPECIFIED' ) ;
#121 = FACE_BOUND ( 'NONE', #206, .T. ) ;
#122 = CYLINDRICAL_SURFACE ( 'NONE', #177, 0.9499999999999996225 ) ;
#123 = VERTEX_POINT ( 'NONE', #150 ) ;
#124 = EDGE_LOOP ( 'NONE', ( #172 ) ) ;
#125 = DIRECTION ( 'NONE',  ( 0.0000000000000000000, 1.000000000000000000, 0.0000000000000000000 ) ) ;
#126 = CARTESIAN_POINT ( 'NONE',  ( 1.396592535537253342E-14, -4.898587196589412829E-16, 4.000000000000000000 ) ) ;
#127 = CC_DESIGN_PERSON_AND_ORGANIZATION_ASSIGNMENT ( #189, #44, ( #318 ) ) ;
#128 = EDGE_LOOP ( 'NONE', ( #343 ) ) ;
#129 = CARTESIAN_POINT ( 'NONE',  ( 5.481625701983718737E-14, -1.922695474661344271E-15, 15.69999999999999929 ) ) ;
#130 = FACE_BOUND ( 'NONE', #337, .T. ) ;
#131 = ORIENTED_EDGE ( 'NONE', *, *, #263, .T. ) ;
#132 = CARTESIAN_POINT ( 'NONE',  ( 4.515754487950944886E-14, -1.583913457557472169E-15, 12.93363489505916597 ) ) ;
#133 = ADVANCED_FACE ( 'NONE', ( #104, #207 ), #122, .T. ) ;
#134 = CIRCLE ( 'NONE', #320, 1.117875371939955009 ) ;
#135 = CONICAL_SURFACE ( 'NONE', #273, 2.400000000000003020, 0.7853981633974450594 ) ;
#136 = DIRECTION ( 'NONE',  ( 0.0000000000000000000, 1.000000000000000000, 0.0000000000000000000 ) ) ;
#137 = CC_DESIGN_SECURITY_CLASSIFICATION ( #154, ( #259 ) ) ;
#138 = COORDINATED_UNIVERSAL_TIME_OFFSET ( 1, 0, .AHEAD. ) ;
#139 = CC_DESIGN_PERSON_AND_ORGANIZATION_ASSIGNMENT ( #113, #162, ( #259 ) ) ;
#140 = AXIS2_PLACEMENT_3D ( 'NONE', #148, #49, #253 ) ;
#141 = APPROVAL_STATUS ( 'not_yet_approved' ) ;
#142 = PRODUCT_DEFINITION_SHAPE ( 'NONE', 'NONE',  #278 ) ;
#143 = COORDINATED_UNIVERSAL_TIME_OFFSET ( 1, 0, .AHEAD. ) ;
#144 = ORIENTED_EDGE ( 'NONE', *, *, #163, .T. ) ;
#145 = CIRCLE ( 'NONE', #117, 0.9499999999999998446 ) ;
#146 = AXIS2_PLACEMENT_3D ( 'NONE', #237, #84, #88 ) ;
#147 = PERSON_AND_ORGANIZATION ( #40, #53 ) ;
#148 = CARTESIAN_POINT ( 'NONE',  ( 1.396592535537253342E-14, 7.123858967643815426E-33, 4.000000000000000000 ) ) ;
#149 = EDGE_CURVE ( 'NONE', #299, #299, #218, .T. ) ;
#150 = CARTESIAN_POINT ( 'NONE',  ( 1.396592535537253342E-14, 0.9499999999999994005, 4.000000000000000000 ) ) ;
#151 = DIRECTION ( 'NONE',  ( 4.275831445896958607E-31, 1.000000000000000000, 1.224646799147353207E-16 ) ) ;
#152 = AXIS2_PLACEMENT_3D ( 'NONE', #334, #330, #197 ) ;
#153 = CARTESIAN_POINT ( 'NONE',  ( 1.899365848330664293E-13, -6.662078587361600895E-15, 54.39999999999999858 ) ) ;
#154 = SECURITY_CLASSIFICATION ( '', '', #246 ) ;
#155 = ORIENTED_EDGE ( 'NONE', *, *, #174, .T. ) ;
#156 = ORIENTED_EDGE ( 'NONE', *, *, #234, .F. ) ;
#157 = CARTESIAN_POINT ( 'NONE',  ( 1.990144363140586328E-14, -8.673617379884035472E-16, 5.700000000000000178 ) ) ;
#158 = EDGE_LOOP ( 'NONE', ( #83 ) ) ;
#159 = DIRECTION ( 'NONE',  ( 0.0000000000000000000, 1.000000000000000000, 0.0000000000000000000 ) ) ;
#160 = CARTESIAN_POINT ( 'NONE',  ( 0.0000000000000000000, 0.0000000000000000000, 0.0000000000000000000 ) ) ;
#161 = CIRCLE ( 'NONE', #146, 0.9937047985323825827 ) ;
#162 = PERSON_AND_ORGANIZATION_ROLE ( 'creator' ) ;
#163 = EDGE_CURVE ( 'NONE', #93, #93, #308, .T. ) ;
#164 = VERTEX_POINT ( 'NONE', #225 ) ;
#165 = AXIS2_PLACEMENT_3D ( 'NONE', #168, #97, #285 ) ;
#166 = VERTEX_POINT ( 'NONE', #254 ) ;
#167 = ADVANCED_FACE ( 'NONE', ( #121, #327 ), #95, .F. ) ;
#168 = CARTESIAN_POINT ( 'NONE',  ( 2.339292497024899979E-14, 1.145935993436751195E-14, 6.700000000000001066 ) ) ;
#169 = DIRECTION ( 'NONE',  ( 0.0000000000000000000, 0.0000000000000000000, 1.000000000000000000 ) ) ;
#170 = CYLINDRICAL_SURFACE ( 'NONE', #152, 2.950000000000000178 ) ;
#171 = CARTESIAN_POINT ( 'NONE',  ( 1.396592535537253342E-14, -4.898587196589412829E-16, 4.000000000000000000 ) ) ;
#172 = ORIENTED_EDGE ( 'NONE', *, *, #335, .F. ) ;
#173 = ORIENTED_EDGE ( 'NONE', *, *, #72, .T. ) ;
#174 = EDGE_CURVE ( 'NONE', #66, #66, #161, .T. ) ;
#175 = CARTESIAN_POINT ( 'NONE',  ( 1.396592535537253342E-14, 7.123858967643815426E-33, 4.000000000000000000 ) ) ;
#176 = ADVANCED_BREP_SHAPE_REPRESENTATION ( '388813', ( #333, #112, #63 ), #221 ) ;
#177 = AXIS2_PLACEMENT_3D ( 'NONE', #302, #82, #151 ) ;
#178 = CYLINDRICAL_SURFACE ( 'NONE', #266, 0.9499999999999998446 ) ;
#179 = CC_DESIGN_APPROVAL ( #85, ( #154 ) ) ;
#180 = DIRECTION ( 'NONE',  ( 4.275831445896958607E-31, 1.000000000000000000, 1.224646799147353207E-16 ) ) ;
#181 = EDGE_LOOP ( 'NONE', ( #226 ) ) ;
#182 = FACE_OUTER_BOUND ( 'NONE', #201, .T. ) ;
#183 = DIRECTION ( 'NONE',  ( 0.0000000000000000000, -1.000000000000000000, 0.0000000000000000000 ) ) ;
#184 = AXIS2_PLACEMENT_3D ( 'NONE', #157, #78, #287 ) ;
#185 = DIRECTION ( 'NONE',  ( 3.491481338843133355E-15, -1.224646799147353207E-16, 1.000000000000000000 ) ) ;
#186 = CARTESIAN_POINT ( 'NONE',  ( 1.920314736363723472E-13, -6.735557395310442615E-15, 55.00000000000000000 ) ) ;
#187 = AXIS2_PLACEMENT_3D ( 'NONE', #224, #303, #46 ) ;
#188 = PERSON_AND_ORGANIZATION ( #40, #53 ) ;
#189 = PERSON_AND_ORGANIZATION ( #40, #53 ) ;
#190 = ADVANCED_FACE ( 'NONE', ( #269, #109 ), #342, .T. ) ;
#191 = AXIS2_PLACEMENT_3D ( 'NONE', #1, #212, #159 ) ;
#192 = APPROVAL_DATE_TIME ( #91, #85 ) ;
#193 = CC_DESIGN_APPROVAL ( #120, ( #259 ) ) ;
#194 = DIRECTION ( 'NONE',  ( -3.491481338843133355E-15, 1.224646799147353207E-16, -1.000000000000000000 ) ) ;
#195 = DATE_AND_TIME ( #12, #32 ) ;
#196 = APPLICATION_PROTOCOL_DEFINITION ( 'international standard', 'config_control_design', 1994, #242 ) ;
#197 = DIRECTION ( 'NONE',  ( 4.275831445896958607E-31, 1.000000000000000000, 1.224646799147353207E-16 ) ) ;
#198 = VERTEX_POINT ( 'NONE', #257 ) ;
#199 = DIRECTION ( 'NONE',  ( 0.0000000000000000000, 1.000000000000000000, 0.0000000000000000000 ) ) ;
#200 = CARTESIAN_POINT ( 'NONE',  ( 2.135328320864082654E-14, 0.9937047985323819166, 6.115823381635491884 ) ) ;
#201 = EDGE_LOOP ( 'NONE', ( #50 ) ) ;
#202 = DIRECTION ( 'NONE',  ( 0.0000000000000000000, 1.000000000000000000, 0.0000000000000000000 ) ) ;
#203 = DIRECTION ( 'NONE',  ( -4.275831445896958607E-31, -1.000000000000000000, -1.224646799147353207E-16 ) ) ;
#204 = CIRCLE ( 'NONE', #90, 1.624999999999999778 ) ;
#205 = CLOSED_SHELL ( 'NONE', ( #31, #16, #58, #247, #167, #255, #43, #228, #190, #60, #110 ) ) ;
#206 = EDGE_LOOP ( 'NONE', ( #156 ) ) ;
#207 = FACE_OUTER_BOUND ( 'NONE', #71, .T. ) ;
#208 = EDGE_LOOP ( 'NONE', ( #26 ) ) ;
#209 = DIRECTION ( 'NONE',  ( 0.0000000000000000000, -1.000000000000000000, 0.0000000000000000000 ) ) ;
#210 = EDGE_LOOP ( 'NONE', ( #13 ) ) ;
#211 = DIRECTION ( 'NONE',  ( -4.275831445896958607E-31, -1.000000000000000000, -1.224646799147353207E-16 ) ) ;
#212 = DIRECTION ( 'NONE',  ( -3.491481338843133355E-15, 1.224646799147353207E-16, -1.000000000000000000 ) ) ;
#213 = LOCAL_TIME ( 11, 26, 0.0000000000000000000, #143 ) ;
#214 = PERSON_AND_ORGANIZATION ( #40, #53 ) ;
#215 = COORDINATED_UNIVERSAL_TIME_OFFSET ( 1, 0, .AHEAD. ) ;
#216 = DATE_AND_TIME ( #116, #213 ) ;
#217 = CONICAL_SURFACE ( 'NONE', #306, 1.117875371939955009, 0.2094395102393056818 ) ;
#218 = CIRCLE ( 'NONE', #77, 2.999999999999995115 ) ;
#219 =( NAMED_UNIT ( * ) SI_UNIT ( $, .STERADIAN. ) SOLID_ANGLE_UNIT ( ) );
#220 = DATE_AND_TIME ( #300, #297 ) ;
#221 =( GEOMETRIC_REPRESENTATION_CONTEXT ( 3 ) GLOBAL_UNCERTAINTY_ASSIGNED_CONTEXT ( ( #37 ) ) GLOBAL_UNIT_ASSIGNED_CONTEXT ( ( #251, #15, #219 ) ) REPRESENTATION_CONTEXT ( 'NONE', 'WORKASPACE' ) );
#222 = FACE_BOUND ( 'NONE', #229, .T. ) ;
#223 = CARTESIAN_POINT ( 'NONE',  ( 2.339292497024899979E-14, 1.624999999999998890, 6.700000000000001066 ) ) ;
#224 = CARTESIAN_POINT ( 'NONE',  ( 1.990144363140586328E-14, -6.980486755139913108E-16, 5.700000000000000178 ) ) ;
#225 = CARTESIAN_POINT ( 'NONE',  ( 1.920314736363723472E-13, 2.399999999999995914, 55.00000000000000000 ) ) ;
#226 = ORIENTED_EDGE ( 'NONE', *, *, #234, .T. ) ;
#227 = DIRECTION ( 'NONE',  ( -3.491481338843133355E-15, 1.224646799147353207E-16, -1.000000000000000000 ) ) ;
#228 = ADVANCED_FACE ( 'NONE', ( #130, #238 ), #59, .F. ) ;
#229 = EDGE_LOOP ( 'NONE', ( #310 ) ) ;
#230 = FACE_OUTER_BOUND ( 'NONE', #108, .T. ) ;
#231 = ORIENTED_EDGE ( 'NONE', *, *, #271, .F. ) ;
#232 = DIRECTION ( 'NONE',  ( 0.0000000000000000000, 1.000000000000000000, 0.0000000000000000000 ) ) ;
#233 = CIRCLE ( 'NONE', #280, 2.950000000000000178 ) ;
#234 = EDGE_CURVE ( 'NONE', #166, #166, #134, .T. ) ;
#235 = DIRECTION ( 'NONE',  ( -3.491481338843133355E-15, 1.224646799147353207E-16, -1.000000000000000000 ) ) ;
#236 = EDGE_LOOP ( 'NONE', ( #51 ) ) ;
#237 = CARTESIAN_POINT ( 'NONE',  ( 2.135328320864082654E-14, -7.489723528470446534E-16, 6.115823381635491884 ) ) ;
#238 = FACE_OUTER_BOUND ( 'NONE', #208, .T. ) ;
#239 = AXIS2_PLACEMENT_3D ( 'NONE', #57, #235, #312 ) ;
#240 = DIRECTION ( 'NONE',  ( 4.275831445896958607E-31, 1.000000000000000000, 1.224646799147353454E-16 ) ) ;
#241 = LOCAL_TIME ( 11, 26, 0.0000000000000000000, #138 ) ;
#242 = APPLICATION_CONTEXT ( 'configuration controlled 3d designs of mechanical parts and assemblies' ) ;
#243 = APPROVAL ( #67, 'UNSPECIFIED' ) ;
#244 = DATE_AND_TIME ( #8, #241 ) ;
#245 = PERSON_AND_ORGANIZATION_ROLE ( 'design_supplier' ) ;
#246 = SECURITY_CLASSIFICATION_LEVEL ( 'unclassified' ) ;
#247 = ADVANCED_FACE ( 'NONE', ( #105, #314 ), #217, .T. ) ;
#248 = AXIS2_PLACEMENT_3D ( 'NONE', #107, #290, #211 ) ;
#249 = EDGE_LOOP ( 'NONE', ( #332 ) ) ;
#250 = CIRCLE ( 'NONE', #34, 3.000000000000002220 ) ;
#251 =( LENGTH_UNIT ( ) NAMED_UNIT ( * ) SI_UNIT ( .MILLI., .METRE. ) );
#252 = CARTESIAN_POINT ( 'NONE',  ( 1.920314736363723472E-13, 1.799711739194220919E-32, 55.00000000000000000 ) ) ;
#253 = DIRECTION ( 'NONE',  ( -4.275831445896958607E-31, -1.000000000000000000, -1.224646799147353207E-16 ) ) ;
#254 = CARTESIAN_POINT ( 'NONE',  ( 2.339292497024899979E-14, 1.117875371939954121, 6.700000000000001066 ) ) ;
#255 = ADVANCED_FACE ( 'NONE', ( #3, #311 ), #272, .T. ) ;
#256 = FACE_OUTER_BOUND ( 'NONE', #277, .T. ) ;
#257 = CARTESIAN_POINT ( 'NONE',  ( 5.481625701983718737E-14, 2.949999999999998845, 15.69999999999999929 ) ) ;
#258 = EDGE_LOOP ( 'NONE', ( #86 ) ) ;
#259 = PRODUCT_DEFINITION_FORMATION_WITH_SPECIFIED_SOURCE ( 'ANY', '', #318, .NOT_KNOWN. ) ;
#260 = DIRECTION ( 'NONE',  ( 0.0000000000000000000, 1.000000000000000000, 0.0000000000000000000 ) ) ;
#261 = ORIENTED_EDGE ( 'NONE', *, *, #174, .F. ) ;
#262 = FACE_OUTER_BOUND ( 'NONE', #124, .T. ) ;
#263 = EDGE_CURVE ( 'NONE', #326, #326, #42, .T. ) ;
#264 = EDGE_LOOP ( 'NONE', ( #261 ) ) ;
#265 = DIRECTION ( 'NONE',  ( 3.491481338843133355E-15, -1.224646799147353207E-16, 1.000000000000000000 ) ) ;
#266 = AXIS2_PLACEMENT_3D ( 'NONE', #288, #54, #180 ) ;
#267 = CC_DESIGN_DATE_AND_TIME_ASSIGNMENT ( #244, #35, ( #154 ) ) ;
#268 = CARTESIAN_POINT ( 'NONE',  ( 5.481625701983718737E-14, 4.461785353419020636E-32, 15.69999999999999929 ) ) ;
#269 = FACE_OUTER_BOUND ( 'NONE', #101, .T. ) ;
#270 = DIRECTION ( 'NONE',  ( -3.491481338843133355E-15, 1.224646799147353207E-16, -1.000000000000000000 ) ) ;
#271 = EDGE_CURVE ( 'NONE', #164, #164, #340, .T. ) ;
#272 = CONICAL_SURFACE ( 'NONE', #103, 2.950000000000000178, 0.2094395102393127317 ) ;
#273 = AXIS2_PLACEMENT_3D ( 'NONE', #52, #227, #260 ) ;
#274 = MECHANICAL_CONTEXT ( 'NONE', #242, 'mechanical' ) ;
#275 = APPROVAL_DATE_TIME ( #216, #243 ) ;
#276 = APPROVAL_STATUS ( 'not_yet_approved' ) ;
#277 = EDGE_LOOP ( 'NONE', ( #173 ) ) ;
#278 = PRODUCT_DEFINITION ( 'UNKNOWN', '', #259, #39 ) ;
#279 = DIRECTION ( 'NONE',  ( -3.491481338843133355E-15, 1.224646799147353207E-16, -1.000000000000000000 ) ) ;
#280 = AXIS2_PLACEMENT_3D ( 'NONE', #129, #18, #199 ) ;
#281 = CARTESIAN_POINT ( 'NONE',  ( 5.481625701983718737E-14, -1.922695474661344271E-15, 15.69999999999999929 ) ) ;
#282 = CARTESIAN_POINT ( 'NONE',  ( 4.515754487950944886E-14, 2.949999999999998845, 12.93363489505916597 ) ) ;
#283 = ORIENTED_EDGE ( 'NONE', *, *, #335, .T. ) ;
#284 = DIRECTION ( 'NONE',  ( 1.000000000000000000, 0.0000000000000000000, 0.0000000000000000000 ) ) ;
#285 = DIRECTION ( 'NONE',  ( -4.275831445896958607E-31, -1.000000000000000000, -1.224646799147353207E-16 ) ) ;
#286 = ORIENTED_EDGE ( 'NONE', *, *, #149, .F. ) ;
#287 = DIRECTION ( 'NONE',  ( 4.383125564698007546E-31, 1.000000000000000000, 1.224646799147353207E-16 ) ) ;
#288 = CARTESIAN_POINT ( 'NONE',  ( 0.0000000000000000000, 0.0000000000000000000, 0.0000000000000000000 ) ) ;
#289 = FACE_OUTER_BOUND ( 'NONE', #210, .T. ) ;
#290 = DIRECTION ( 'NONE',  ( 3.491481338843133355E-15, -1.224646799147353207E-16, 1.000000000000000000 ) ) ;
#291 = CARTESIAN_POINT ( 'NONE',  ( 2.339292497024899979E-14, -8.205133554287267548E-16, 6.700000000000001066 ) ) ;
#292 = DIRECTION ( 'NONE',  ( -3.491481338843133355E-15, 1.224646799147353207E-16, -1.000000000000000000 ) ) ;
#293 = AXIS2_PLACEMENT_3D ( 'NONE', #160, #87, #240 ) ;
#294 = AXIS2_PLACEMENT_3D ( 'NONE', #252, #20, #70 ) ;
#295 = PERSON_AND_ORGANIZATION ( #40, #53 ) ;
#296 = ORIENTED_EDGE ( 'NONE', *, *, #323, .T. ) ;
#297 = LOCAL_TIME ( 11, 26, 0.0000000000000000000, #114 ) ;
#298 = SHAPE_DEFINITION_REPRESENTATION ( #142, #176 ) ;
#299 = VERTEX_POINT ( 'NONE', #118 ) ;
#300 = CALENDAR_DATE ( 2021, 13, 12 ) ;
#301 = AXIS2_PLACEMENT_3D ( 'NONE', #175, #55, #203 ) ;
#302 = CARTESIAN_POINT ( 'NONE',  ( 0.0000000000000000000, 0.0000000000000000000, 0.0000000000000000000 ) ) ;
#303 = DIRECTION ( 'NONE',  ( -3.491481338843133355E-15, 1.224646799147353207E-16, -1.000000000000000000 ) ) ;
#304 = VERTEX_POINT ( 'NONE', #331 ) ;
#305 = FACE_OUTER_BOUND ( 'NONE', #236, .T. ) ;
#306 = AXIS2_PLACEMENT_3D ( 'NONE', #30, #28, #209 ) ;
#307 = ADVANCED_FACE ( 'NONE', ( #182 ), #27, .F. ) ;
#308 = CIRCLE ( 'NONE', #187, 0.9499999999999999556 ) ;
#309 = FACE_OUTER_BOUND ( 'NONE', #56, .T. ) ;
#310 = ORIENTED_EDGE ( 'NONE', *, *, #271, .T. ) ;
#311 = FACE_OUTER_BOUND ( 'NONE', #99, .T. ) ;
#312 = DIRECTION ( 'NONE',  ( 4.275831445896958607E-31, 1.000000000000000000, 1.224646799147353454E-16 ) ) ;
#313 = EDGE_CURVE ( 'NONE', #304, #304, #11, .T. ) ;
#314 = FACE_OUTER_BOUND ( 'NONE', #181, .T. ) ;
#315 = CIRCLE ( 'NONE', #322, 0.9499999999999998446 ) ;
#316 = CC_DESIGN_PERSON_AND_ORGANIZATION_ASSIGNMENT ( #38, #245, ( #259 ) ) ;
#317 = APPROVAL_ROLE ( '' ) ;
#318 = PRODUCT ( '388813', '388813', '', ( #274 ) ) ;
#319 = CALENDAR_DATE ( 2021, 13, 12 ) ;
#320 = AXIS2_PLACEMENT_3D ( 'NONE', #291, #270, #25 ) ;
#321 = PERSON_AND_ORGANIZATION_ROLE ( 'classification_officer' ) ;
#322 = AXIS2_PLACEMENT_3D ( 'NONE', #126, #24, #232 ) ;
#323 = EDGE_CURVE ( 'NONE', #41, #41, #204, .T. ) ;
#324 = CARTESIAN_POINT ( 'NONE',  ( 1.396592535537253342E-14, 0.9499999999999994005, 4.000000000000000000 ) ) ;
#325 = APPROVAL_DATE_TIME ( #220, #120 ) ;
#326 = VERTEX_POINT ( 'NONE', #282 ) ;
#327 = FACE_OUTER_BOUND ( 'NONE', #73, .T. ) ;
#328 = CARTESIAN_POINT ( 'NONE',  ( 1.990144363140586328E-14, 0.9499999999999994005, 5.700000000000000178 ) ) ;
#329 = TOROIDAL_SURFACE ( 'NONE', #184, 2.950000000000000178, 2.000000000000000000 ) ;
#330 = DIRECTION ( 'NONE',  ( -3.491481338843133355E-15, 1.224646799147353207E-16, -1.000000000000000000 ) ) ;
#331 = CARTESIAN_POINT ( 'NONE',  ( 2.137183397710479182E-32, 0.9499999999999994005, 6.121136532892404794E-18 ) ) ;
#332 = ORIENTED_EDGE ( 'NONE', *, *, #163, .F. ) ;
#333 = MANIFOLD_SOLID_BREP ( 'Corps-Déplacer/Copier1[1]', #205 ) ;
#334 = CARTESIAN_POINT ( 'NONE',  ( 0.0000000000000000000, 0.0000000000000000000, 0.0000000000000000000 ) ) ;
#335 = EDGE_CURVE ( 'NONE', #98, #98, #145, .T. ) ;
#336 = EDGE_LOOP ( 'NONE', ( #144 ) ) ;
#337 = EDGE_LOOP ( 'NONE', ( #22 ) ) ;
#338 = PLANE ( 'NONE',  #140 ) ;
#339 = PRODUCT_RELATED_PRODUCT_CATEGORY ( 'detail', '', ( #318 ) ) ;
#340 = CIRCLE ( 'NONE', #75, 2.400000000000003020 ) ;
#341 = PLANE ( 'NONE',  #301 ) ;
#342 = CYLINDRICAL_SURFACE ( 'NONE', #293, 2.999999999999998668 ) ;
#343 = ORIENTED_EDGE ( 'NONE', *, *, #323, .F. ) ;
ENDSEC;
END-ISO-10303-21;
