ISO-10303-21;
HEADER;
FILE_DESCRIPTION (( 'STEP AP203' ),
    '1' );
FILE_NAME ('388812.step',
    '2021-12-13T10:25:59',
    ( '' ),
    ( '' ),
    'SwSTEP 2.0',
    'SolidWorks 2019',
    '' );
FILE_SCHEMA (( 'CONFIG_CONTROL_DESIGN' ));
ENDSEC;

DATA;
#1 = DIRECTION ( 'NONE',  ( -3.491481338843133355E-15, 1.230835259046140666E-16, -1.000000000000000000 ) ) ;
#2 = COORDINATED_UNIVERSAL_TIME_OFFSET ( 1, 0, .AHEAD. ) ;
#3 = DIRECTION ( 'NONE',  ( -3.491481338843133355E-15, 1.230835259046140666E-16, -1.000000000000000000 ) ) ;
#4 = ORIENTED_EDGE ( 'NONE', *, *, #180, .F. ) ;
#5 = CLOSED_SHELL ( 'NONE', ( #99, #185, #59, #263, #113, #8, #31, #13, #174 ) ) ;
#6 = LOCAL_TIME ( 11, 25, 59.00000000000000000, #134 ) ;
#7 = FACE_OUTER_BOUND ( 'NONE', #112, .T. ) ;
#8 = ADVANCED_FACE ( 'NONE', ( #160, #207 ), #19, .T. ) ;
#9 = CARTESIAN_POINT ( 'NONE',  ( 1.850485109586860678E-14, 0.8999999999999993561, 5.299999999999999822 ) ) ;
#10 = DIRECTION ( 'NONE',  ( -3.491481338843133355E-15, 1.230835259046140666E-16, -1.000000000000000000 ) ) ;
#11 = CIRCLE ( 'NONE', #281, 2.950000000000000178 ) ;
#12 = CARTESIAN_POINT ( 'NONE',  ( 1.920314736363723472E-13, -6.735557395310442615E-15, 55.00000000000000000 ) ) ;
#13 = ADVANCED_FACE ( 'NONE', ( #116 ), #157, .T. ) ;
#14 = VERTEX_POINT ( 'NONE', #146 ) ;
#15 = CC_DESIGN_PERSON_AND_ORGANIZATION_ASSIGNMENT ( #106, #38, ( #282 ) ) ;
#16 = LOCAL_TIME ( 11, 25, 59.00000000000000000, #155 ) ;
#17 = CALENDAR_DATE ( 2021, 13, 12 ) ;
#18 = PERSON_AND_ORGANIZATION_ROLE ( 'creator' ) ;
#19 = CONICAL_SURFACE ( 'NONE', #158, 3.000000000000002220, 0.7853981633974450594 ) ;
#20 = SECURITY_CLASSIFICATION ( '', '', #43 ) ;
#21 = EDGE_LOOP ( 'NONE', ( #232 ) ) ;
#22 = CYLINDRICAL_SURFACE ( 'NONE', #40, 2.950000000000000178 ) ;
#23 = ORIENTED_EDGE ( 'NONE', *, *, #287, .T. ) ;
#24 = APPROVAL_ROLE ( '' ) ;
#25 =( GEOMETRIC_REPRESENTATION_CONTEXT ( 3 ) GLOBAL_UNCERTAINTY_ASSIGNED_CONTEXT ( ( #84 ) ) GLOBAL_UNIT_ASSIGNED_CONTEXT ( ( #289, #151, #190 ) ) REPRESENTATION_CONTEXT ( 'NONE', 'WORKASPACE' ) );
#26 = DIRECTION ( 'NONE',  ( -3.491481338843133355E-15, 1.230835259046140666E-16, -1.000000000000000000 ) ) ;
#27 = LOCAL_TIME ( 11, 25, 59.00000000000000000, #303 ) ;
#28 = SHAPE_DEFINITION_REPRESENTATION ( #101, #251 ) ;
#29 = EDGE_LOOP ( 'NONE', ( #80 ) ) ;
#30 = CARTESIAN_POINT ( 'NONE',  ( 1.326762908760390675E-14, -4.336808689942017736E-16, 3.799999999999999822 ) ) ;
#31 = ADVANCED_FACE ( 'NONE', ( #212 ), #85, .T. ) ;
#32 = ORIENTED_EDGE ( 'NONE', *, *, #82, .F. ) ;
#33 = FACE_OUTER_BOUND ( 'NONE', #184, .T. ) ;
#34 = CARTESIAN_POINT ( 'NONE',  ( 1.326762908760390675E-14, 0.8999999999999993561, 3.799999999999999822 ) ) ;
#35 = AXIS2_PLACEMENT_3D ( 'NONE', #30, #216, #96 ) ;
#36 = DIRECTION ( 'NONE',  ( 4.297438338149754172E-31, 1.000000000000000000, 1.230835259046140666E-16 ) ) ;
#37 = DIRECTION ( 'NONE',  ( 4.275831445896958607E-31, 1.000000000000000000, 1.224646799147353207E-16 ) ) ;
#38 = PERSON_AND_ORGANIZATION_ROLE ( 'design_supplier' ) ;
#39 = CIRCLE ( 'NONE', #104, 0.8999999999999993561 ) ;
#40 = AXIS2_PLACEMENT_3D ( 'NONE', #205, #252, #88 ) ;
#41 = CARTESIAN_POINT ( 'NONE',  ( 1.326762908760390675E-14, 0.8999999999999993561, 3.799999999999999822 ) ) ;
#42 = APPROVAL ( #191, 'UNSPECIFIED' ) ;
#43 = SECURITY_CLASSIFICATION_LEVEL ( 'unclassified' ) ;
#44 = PERSON_AND_ORGANIZATION ( #217, #249 ) ;
#45 = DIRECTION ( 'NONE',  ( -3.491481338843133355E-15, 1.230835259046140666E-16, -1.000000000000000000 ) ) ;
#46 = DATE_TIME_ROLE ( 'classification_date' ) ;
#47 = CC_DESIGN_PERSON_AND_ORGANIZATION_ASSIGNMENT ( #111, #81, ( #152 ) ) ;
#48 = FACE_OUTER_BOUND ( 'NONE', #145, .T. ) ;
#49 = ORIENTED_EDGE ( 'NONE', *, *, #118, .F. ) ;
#50 = FACE_OUTER_BOUND ( 'NONE', #91, .T. ) ;
#51 = CARTESIAN_POINT ( 'NONE',  ( 1.850485109586860678E-14, -6.183061578511228612E-16, 5.299999999999999822 ) ) ;
#52 = CC_DESIGN_DATE_AND_TIME_ASSIGNMENT ( #206, #254, ( #294 ) ) ;
#53 = VERTEX_POINT ( 'NONE', #124 ) ;
#54 = PLANE ( 'NONE',  #61 ) ;
#55 = DIRECTION ( 'NONE',  ( 0.0000000000000000000, -1.000000000000000000, 0.0000000000000000000 ) ) ;
#56 = AXIS2_PLACEMENT_3D ( 'NONE', #94, #140, #208 ) ;
#57 = DIRECTION ( 'NONE',  ( -4.275831445896958607E-31, -1.000000000000000000, -1.224646799147353207E-16 ) ) ;
#58 = CARTESIAN_POINT ( 'NONE',  ( 4.478665626931519477E-14, 2.949999999999998845, 12.82740817516578602 ) ) ;
#59 = ADVANCED_FACE ( 'NONE', ( #186, #230 ), #22, .T. ) ;
#60 = PERSON_AND_ORGANIZATION_ROLE ( 'creator' ) ;
#61 = AXIS2_PLACEMENT_3D ( 'NONE', #222, #202, #36 ) ;
#62 = DIRECTION ( 'NONE',  ( 0.0000000000000000000, 1.000000000000000000, 0.0000000000000000000 ) ) ;
#63 = AXIS2_PLACEMENT_3D ( 'NONE', #122, #178, #125 ) ;
#64 = APPLICATION_PROTOCOL_DEFINITION ( 'international standard', 'config_control_design', 1994, #238 ) ;
#65 = DIRECTION ( 'NONE',  ( -4.297438338149754172E-31, -1.000000000000000000, -1.230835259046140666E-16 ) ) ;
#66 = DATE_AND_TIME ( #135, #16 ) ;
#67 = PERSON_AND_ORGANIZATION ( #217, #249 ) ;
#68 = CONICAL_SURFACE ( 'NONE', #120, 1.350000000000000089, 0.2094395102393125652 ) ;
#69 = DIRECTION ( 'NONE',  ( -3.491481338843133355E-15, 1.230835259046140666E-16, -1.000000000000000000 ) ) ;
#70 = DIRECTION ( 'NONE',  ( 3.491481338843133355E-15, -1.230835259046140666E-16, 1.000000000000000000 ) ) ;
#71 = EDGE_LOOP ( 'NONE', ( #302 ) ) ;
#72 = CARTESIAN_POINT ( 'NONE',  ( 1.326762908760390675E-14, -4.653657836759942730E-16, 3.799999999999999822 ) ) ;
#73 = CARTESIAN_POINT ( 'NONE',  ( 5.446710888595288034E-14, 2.949999999999998845, 15.59999999999999964 ) ) ;
#74 = CARTESIAN_POINT ( 'NONE',  ( -1.817264980768106108E-31, 6.374107508870823950E-33, -5.204853769518465002E-17 ) ) ;
#75 = FACE_OUTER_BOUND ( 'NONE', #273, .T. ) ;
#76 = AXIS2_PLACEMENT_3D ( 'NONE', #92, #193, #277 ) ;
#77 = DIRECTION ( 'NONE',  ( -3.491481338843133355E-15, 1.224646799147353207E-16, -1.000000000000000000 ) ) ;
#78 = EDGE_CURVE ( 'NONE', #290, #290, #114, .T. ) ;
#79 = APPROVAL_STATUS ( 'not_yet_approved' ) ;
#80 = ORIENTED_EDGE ( 'NONE', *, *, #118, .T. ) ;
#81 = PERSON_AND_ORGANIZATION_ROLE ( 'design_owner' ) ;
#82 = EDGE_CURVE ( 'NONE', #219, #219, #237, .T. ) ;
#83 = ORIENTED_EDGE ( 'NONE', *, *, #266, .F. ) ;
#84 = UNCERTAINTY_MEASURE_WITH_UNIT (LENGTH_MEASURE( 1.000000000000000082E-05 ), #289, 'distance_accuracy_value', 'NONE');
#85 = PLANE ( 'NONE',  #148 ) ;
#86 = AXIS2_PLACEMENT_3D ( 'NONE', #221, #77, #265 ) ;
#87 = PERSON_AND_ORGANIZATION ( #217, #249 ) ;
#88 = DIRECTION ( 'NONE',  ( 5.222860866134876548E-31, 1.000000000000000000, 1.470104640658311001E-16 ) ) ;
#89 = CC_DESIGN_DATE_AND_TIME_ASSIGNMENT ( #163, #46, ( #20 ) ) ;
#90 = APPROVAL_DATE_TIME ( #66, #226 ) ;
#91 = EDGE_LOOP ( 'NONE', ( #183 ) ) ;
#92 = CARTESIAN_POINT ( 'NONE',  ( 1.899365848330664293E-13, -6.661707279767673785E-15, 54.39999999999999858 ) ) ;
#93 = AXIS2_PLACEMENT_3D ( 'NONE', #107, #115, #129 ) ;
#94 = CARTESIAN_POINT ( 'NONE',  ( 1.326762908760390675E-14, -4.336808689942017736E-16, 3.799999999999999822 ) ) ;
#95 = CC_DESIGN_PERSON_AND_ORGANIZATION_ASSIGNMENT ( #159, #60, ( #282 ) ) ;
#96 = DIRECTION ( 'NONE',  ( 0.0000000000000000000, 1.000000000000000000, 0.0000000000000000000 ) ) ;
#97 = DIRECTION ( 'NONE',  ( -3.491481338843133355E-15, 1.224646799147353207E-16, -1.000000000000000000 ) ) ;
#98 = VERTEX_POINT ( 'NONE', #73 ) ;
#99 = ADVANCED_FACE ( 'NONE', ( #7, #119 ), #197, .T. ) ;
#100 = VERTEX_POINT ( 'NONE', #176 ) ;
#101 = PRODUCT_DEFINITION_SHAPE ( 'NONE', 'NONE',  #294 ) ;
#102 = VERTEX_POINT ( 'NONE', #58 ) ;
#103 = FACE_OUTER_BOUND ( 'NONE', #213, .T. ) ;
#104 = AXIS2_PLACEMENT_3D ( 'NONE', #201, #97, #37 ) ;
#105 = APPROVAL_PERSON_ORGANIZATION ( #44, #42, #24 ) ;
#106 = PERSON_AND_ORGANIZATION ( #217, #249 ) ;
#107 = CARTESIAN_POINT ( 'NONE',  ( 0.0000000000000000000, 0.0000000000000000000, 0.0000000000000000000 ) ) ;
#108 = ORIENTED_EDGE ( 'NONE', *, *, #126, .T. ) ;
#109 = EDGE_LOOP ( 'NONE', ( #297 ) ) ;
#110 = DIRECTION ( 'NONE',  ( 3.491481338843133355E-15, -1.230835259046140666E-16, 1.000000000000000000 ) ) ;
#111 = PERSON_AND_ORGANIZATION ( #217, #249 ) ;
#112 = EDGE_LOOP ( 'NONE', ( #108 ) ) ;
#113 = ADVANCED_FACE ( 'NONE', ( #240, #33 ), #170, .T. ) ;
#114 = CIRCLE ( 'NONE', #35, 0.8999999999999998002 ) ;
#115 = DIRECTION ( 'NONE',  ( 0.0000000000000000000, 0.0000000000000000000, 1.000000000000000000 ) ) ;
#116 = FACE_OUTER_BOUND ( 'NONE', #130, .T. ) ;
#117 = DIRECTION ( 'NONE',  ( 0.0000000000000000000, 1.000000000000000000, 0.0000000000000000000 ) ) ;
#118 = EDGE_CURVE ( 'NONE', #198, #198, #215, .T. ) ;
#119 = FACE_BOUND ( 'NONE', #264, .T. ) ;
#120 = AXIS2_PLACEMENT_3D ( 'NONE', #283, #70, #55 ) ;
#121 = LOCAL_TIME ( 11, 25, 59.00000000000000000, #179 ) ;
#122 = CARTESIAN_POINT ( 'NONE',  ( 1.326762908760390675E-14, 6.748919021978352393E-33, 3.799999999999999822 ) ) ;
#123 = EDGE_CURVE ( 'NONE', #102, #102, #11, .T. ) ;
#124 = CARTESIAN_POINT ( 'NONE',  ( 5.446710888595288034E-14, 2.999999999999993339, 15.59999999999999964 ) ) ;
#125 = DIRECTION ( 'NONE',  ( -4.275831445896958607E-31, -1.000000000000000000, -1.224646799147353207E-16 ) ) ;
#126 = EDGE_CURVE ( 'NONE', #154, #154, #295, .T. ) ;
#127 = CARTESIAN_POINT ( 'NONE',  ( 1.326762908760390675E-14, 0.8999999999999993561, 3.799999999999999822 ) ) ;
#128 = AXIS2_PLACEMENT_3D ( 'NONE', #189, #69, #284 ) ;
#129 = DIRECTION ( 'NONE',  ( 1.000000000000000000, 0.0000000000000000000, 0.0000000000000000000 ) ) ;
#130 = EDGE_LOOP ( 'NONE', ( #239 ) ) ;
#131 = CC_DESIGN_SECURITY_CLASSIFICATION ( #20, ( #282 ) ) ;
#132 = CC_DESIGN_APPROVAL ( #242, ( #294 ) ) ;
#133 = DIRECTION ( 'NONE',  ( 4.297438338149754172E-31, 1.000000000000000000, 1.230835259046140666E-16 ) ) ;
#134 = COORDINATED_UNIVERSAL_TIME_OFFSET ( 1, 0, .AHEAD. ) ;
#135 = CALENDAR_DATE ( 2021, 13, 12 ) ;
#136 = EDGE_LOOP ( 'NONE', ( #49 ) ) ;
#137 = FACE_OUTER_BOUND ( 'NONE', #259, .T. ) ;
#138 = AXIS2_PLACEMENT_3D ( 'NONE', #236, #141, #117 ) ;
#139 = CALENDAR_DATE ( 2021, 13, 12 ) ;
#140 = DIRECTION ( 'NONE',  ( -3.491481338843133355E-15, 1.230835259046140666E-16, -1.000000000000000000 ) ) ;
#141 = DIRECTION ( 'NONE',  ( -3.491481338843133355E-15, 1.230835259046140666E-16, -1.000000000000000000 ) ) ;
#142 = ORIENTED_EDGE ( 'NONE', *, *, #82, .T. ) ;
#143 = CARTESIAN_POINT ( 'NONE',  ( 5.446710888595288034E-14, -1.886066474668647794E-15, 15.59999999999999964 ) ) ;
#144 = AXIS2_PLACEMENT_3D ( 'NONE', #74, #149, #57 ) ;
#145 = EDGE_LOOP ( 'NONE', ( #142 ) ) ;
#146 = CARTESIAN_POINT ( 'NONE',  ( 1.920314736363723472E-13, 2.399999999999995914, 55.00000000000000000 ) ) ;
#147 = CARTESIAN_POINT ( 'NONE',  ( 5.446710888595288034E-14, -1.886066474668647794E-15, 15.59999999999999964 ) ) ;
#148 = AXIS2_PLACEMENT_3D ( 'NONE', #298, #110, #65 ) ;
#149 = DIRECTION ( 'NONE',  ( 3.491481338843133355E-15, -1.224646799147353207E-16, 1.000000000000000000 ) ) ;
#150 = MANIFOLD_SOLID_BREP ( 'Corps-Déplacer/Copier3[1]', #5 ) ;
#151 =( NAMED_UNIT ( * ) PLANE_ANGLE_UNIT ( ) SI_UNIT ( $, .RADIAN. ) );
#152 = PRODUCT ( '388812', '388812', '', ( #293 ) ) ;
#153 = ORIENTED_EDGE ( 'NONE', *, *, #123, .F. ) ;
#154 = VERTEX_POINT ( 'NONE', #262 ) ;
#155 = COORDINATED_UNIVERSAL_TIME_OFFSET ( 1, 0, .AHEAD. ) ;
#156 = DESIGN_CONTEXT ( 'detailed design', #238, 'design' ) ;
#157 = PLANE ( 'NONE',  #229 ) ;
#158 = AXIS2_PLACEMENT_3D ( 'NONE', #248, #26, #62 ) ;
#159 = PERSON_AND_ORGANIZATION ( #217, #249 ) ;
#160 = FACE_BOUND ( 'NONE', #268, .T. ) ;
#161 = PERSON_AND_ORGANIZATION ( #217, #249 ) ;
#162 = DIRECTION ( 'NONE',  ( -3.491481338843133355E-15, 1.230835259046140666E-16, -1.000000000000000000 ) ) ;
#163 = DATE_AND_TIME ( #231, #6 ) ;
#164 = DIRECTION ( 'NONE',  ( 0.0000000000000000000, 1.000000000000000000, 0.0000000000000000000 ) ) ;
#165 = LOCAL_TIME ( 11, 25, 59.00000000000000000, #2 ) ;
#166 = APPROVAL_DATE_TIME ( #235, #42 ) ;
#167 = ORIENTED_EDGE ( 'NONE', *, *, #123, .T. ) ;
#168 = CARTESIAN_POINT ( 'NONE',  ( 4.478665626931519477E-14, -1.544806096973744642E-15, 12.82740817516578602 ) ) ;
#169 = ORIENTED_EDGE ( 'NONE', *, *, #224, .T. ) ;
#170 = CYLINDRICAL_SURFACE ( 'NONE', #56, 2.999999999999998668 ) ;
#171 = ORIENTED_EDGE ( 'NONE', *, *, #299, .F. ) ;
#172 = CARTESIAN_POINT ( 'NONE',  ( 1.899365848330664293E-13, 2.999999999999995559, 54.39999999999999858 ) ) ;
#173 = VERTEX_POINT ( 'NONE', #34 ) ;
#174 = ADVANCED_FACE ( 'NONE', ( #48, #50 ), #253, .T. ) ;
#175 = PLANE ( 'NONE',  #144 ) ;
#176 = CARTESIAN_POINT ( 'NONE',  ( 2.137183397710479182E-32, 0.8999999999999993561, 6.121136532892404794E-18 ) ) ;
#177 = EDGE_LOOP ( 'NONE', ( #169 ) ) ;
#178 = DIRECTION ( 'NONE',  ( 3.491481338843133355E-15, -1.224646799147353207E-16, 1.000000000000000000 ) ) ;
#179 = COORDINATED_UNIVERSAL_TIME_OFFSET ( 1, 0, .AHEAD. ) ;
#180 = EDGE_CURVE ( 'NONE', #53, #53, #247, .T. ) ;
#181 = AXIS2_PLACEMENT_3D ( 'NONE', #51, #3, #280 ) ;
#182 = CC_DESIGN_APPROVAL ( #226, ( #282 ) ) ;
#183 = ORIENTED_EDGE ( 'NONE', *, *, #78, .F. ) ;
#184 = EDGE_LOOP ( 'NONE', ( #4 ) ) ;
#185 = ADVANCED_FACE ( 'NONE', ( #137, #194 ), #68, .T. ) ;
#186 = FACE_OUTER_BOUND ( 'NONE', #177, .T. ) ;
#187 = APPLICATION_PROTOCOL_DEFINITION ( 'international standard', 'config_control_design', 1994, #278 ) ;
#188 = DIRECTION ( 'NONE',  ( -3.491481338843133355E-15, 1.230835259046140666E-16, -1.000000000000000000 ) ) ;
#189 = CARTESIAN_POINT ( 'NONE',  ( 1.850485109586860678E-14, 1.349999999999999423, 5.299999999999999822 ) ) ;
#190 =( NAMED_UNIT ( * ) SI_UNIT ( $, .STERADIAN. ) SOLID_ANGLE_UNIT ( ) );
#191 = APPROVAL_STATUS ( 'not_yet_approved' ) ;
#192 = ORIENTED_EDGE ( 'NONE', *, *, #180, .T. ) ;
#193 = DIRECTION ( 'NONE',  ( -3.491481338843133355E-15, 1.230835259046140666E-16, -1.000000000000000000 ) ) ;
#194 = FACE_BOUND ( 'NONE', #21, .T. ) ;
#195 = EDGE_LOOP ( 'NONE', ( #260 ) ) ;
#196 = ADVANCED_FACE ( 'NONE', ( #75 ), #175, .F. ) ;
#197 = PLANE ( 'NONE',  #128 ) ;
#198 = VERTEX_POINT ( 'NONE', #172 ) ;
#199 = APPROVAL_PERSON_ORGANIZATION ( #87, #226, #270 ) ;
#200 = FACE_OUTER_BOUND ( 'NONE', #71, .T. ) ;
#201 = CARTESIAN_POINT ( 'NONE',  ( -3.634529961536212217E-31, 1.274821501774164790E-32, -1.040970753903693000E-16 ) ) ;
#202 = DIRECTION ( 'NONE',  ( -3.491481338843133355E-15, 1.230835259046140666E-16, -1.000000000000000000 ) ) ;
#203 = EDGE_LOOP ( 'NONE', ( #171 ) ) ;
#204 = PRODUCT_RELATED_PRODUCT_CATEGORY ( 'detail', '', ( #152 ) ) ;
#205 = CARTESIAN_POINT ( 'NONE',  ( 1.326762908760390675E-14, -4.336808689942017736E-16, 3.799999999999999822 ) ) ;
#206 = DATE_AND_TIME ( #17, #27 ) ;
#207 = FACE_OUTER_BOUND ( 'NONE', #136, .T. ) ;
#208 = DIRECTION ( 'NONE',  ( 5.135813185032631277E-31, 1.000000000000000000, 1.445602896647339903E-16 ) ) ;
#209 = AXIS2_PLACEMENT_3D ( 'NONE', #72, #243, #218 ) ;
#210 = CC_DESIGN_APPROVAL ( #42, ( #20 ) ) ;
#211 = CALENDAR_DATE ( 2021, 13, 12 ) ;
#212 = FACE_OUTER_BOUND ( 'NONE', #276, .T. ) ;
#213 = EDGE_LOOP ( 'NONE', ( #192 ) ) ;
#214 = DIRECTION ( 'NONE',  ( 0.0000000000000000000, 1.000000000000000000, 0.0000000000000000000 ) ) ;
#215 = CIRCLE ( 'NONE', #76, 3.000000000000002220 ) ;
#216 = DIRECTION ( 'NONE',  ( -3.491481338843133355E-15, 1.230835259046140666E-16, -1.000000000000000000 ) ) ;
#217 = PERSON ( 'UNSPECIFIED', 'UNSPECIFIED', 'UNSPECIFIED', ('UNSPECIFIED'), ('UNSPECIFIED'), ('UNSPECIFIED') ) ;
#218 = DIRECTION ( 'NONE',  ( 0.0000000000000000000, 1.000000000000000000, 0.0000000000000000000 ) ) ;
#219 = VERTEX_POINT ( 'NONE', #9 ) ;
#220 = FACE_OUTER_BOUND ( 'NONE', #203, .T. ) ;
#221 = CARTESIAN_POINT ( 'NONE',  ( 0.0000000000000000000, 0.0000000000000000000, 0.0000000000000000000 ) ) ;
#222 = CARTESIAN_POINT ( 'NONE',  ( 5.446710888595288034E-14, 2.999999999999993339, 15.59999999999999964 ) ) ;
#223 = CIRCLE ( 'NONE', #291, 2.950000000000000178 ) ;
#224 = EDGE_CURVE ( 'NONE', #98, #98, #223, .T. ) ;
#225 = DATE_AND_TIME ( #211, #165 ) ;
#226 = APPROVAL ( #279, 'UNSPECIFIED' ) ;
#227 = APPROVAL_ROLE ( '' ) ;
#228 = EDGE_LOOP ( 'NONE', ( #153 ) ) ;
#229 = AXIS2_PLACEMENT_3D ( 'NONE', #41, #188, #133 ) ;
#230 = FACE_OUTER_BOUND ( 'NONE', #228, .T. ) ;
#231 = CALENDAR_DATE ( 2021, 13, 12 ) ;
#232 = ORIENTED_EDGE ( 'NONE', *, *, #126, .F. ) ;
#233 = ADVANCED_FACE ( 'NONE', ( #200, #288 ), #241, .T. ) ;
#234 = AXIS2_PLACEMENT_3D ( 'NONE', #143, #45, #214 ) ;
#235 = DATE_AND_TIME ( #139, #121 ) ;
#236 = CARTESIAN_POINT ( 'NONE',  ( 1.326762908760390675E-14, -4.336808689942017736E-16, 3.799999999999999822 ) ) ;
#237 = CIRCLE ( 'NONE', #181, 0.9000000000000000222 ) ;
#238 = APPLICATION_CONTEXT ( 'configuration controlled 3d designs of mechanical parts and assemblies' ) ;
#239 = ORIENTED_EDGE ( 'NONE', *, *, #78, .T. ) ;
#240 = FACE_OUTER_BOUND ( 'NONE', #29, .T. ) ;
#241 = CYLINDRICAL_SURFACE ( 'NONE', #86, 0.8999999999999995781 ) ;
#242 = APPROVAL ( #79, 'UNSPECIFIED' ) ;
#243 = DIRECTION ( 'NONE',  ( -3.491481338843133355E-15, 1.224646799147353207E-16, -1.000000000000000000 ) ) ;
#244 = MANIFOLD_SOLID_BREP ( 'Corps-Déplacer/Copier3[2]', #275 ) ;
#245 = FACE_BOUND ( 'NONE', #109, .T. ) ;
#246 = PLANE ( 'NONE',  #63 ) ;
#247 = CIRCLE ( 'NONE', #234, 2.999999999999995115 ) ;
#248 = CARTESIAN_POINT ( 'NONE',  ( 1.899365848330664293E-13, -6.661707279767673785E-15, 54.39999999999999858 ) ) ;
#249 = ORGANIZATION ( 'UNSPECIFIED', 'UNSPECIFIED', '' ) ;
#250 = PERSON_AND_ORGANIZATION_ROLE ( 'classification_officer' ) ;
#251 = ADVANCED_BREP_SHAPE_REPRESENTATION ( '388812', ( #150, #244, #93 ), #25 ) ;
#252 = DIRECTION ( 'NONE',  ( -3.491481338843133355E-15, 1.230835259046140666E-16, -1.000000000000000000 ) ) ;
#253 = CYLINDRICAL_SURFACE ( 'NONE', #138, 0.8999999999999999112 ) ;
#254 = DATE_TIME_ROLE ( 'creation_date' ) ;
#255 = CC_DESIGN_PERSON_AND_ORGANIZATION_ASSIGNMENT ( #274, #18, ( #294 ) ) ;
#256 = CARTESIAN_POINT ( 'NONE',  ( 1.850485109586860678E-14, -6.183061578511228612E-16, 5.299999999999999822 ) ) ;
#257 = ADVANCED_FACE ( 'NONE', ( #220 ), #246, .T. ) ;
#258 = DIRECTION ( 'NONE',  ( 0.0000000000000000000, 1.000000000000000000, 0.0000000000000000000 ) ) ;
#259 = EDGE_LOOP ( 'NONE', ( #167 ) ) ;
#260 = ORIENTED_EDGE ( 'NONE', *, *, #299, .T. ) ;
#261 = AXIS2_PLACEMENT_3D ( 'NONE', #12, #292, #267 ) ;
#262 = CARTESIAN_POINT ( 'NONE',  ( 1.850485109586860678E-14, 1.349999999999999423, 5.299999999999999822 ) ) ;
#263 = ADVANCED_FACE ( 'NONE', ( #103, #245 ), #54, .T. ) ;
#264 = EDGE_LOOP ( 'NONE', ( #32 ) ) ;
#265 = DIRECTION ( 'NONE',  ( 4.275831445896958607E-31, 1.000000000000000000, 1.224646799147353207E-16 ) ) ;
#266 = EDGE_CURVE ( 'NONE', #14, #14, #286, .T. ) ;
#267 = DIRECTION ( 'NONE',  ( 0.0000000000000000000, 1.000000000000000000, 0.0000000000000000000 ) ) ;
#268 = EDGE_LOOP ( 'NONE', ( #272 ) ) ;
#269 = CC_DESIGN_PERSON_AND_ORGANIZATION_ASSIGNMENT ( #161, #250, ( #20 ) ) ;
#270 = APPROVAL_ROLE ( '' ) ;
#271 = AXIS2_PLACEMENT_3D ( 'NONE', #256, #162, #258 ) ;
#272 = ORIENTED_EDGE ( 'NONE', *, *, #266, .T. ) ;
#273 = EDGE_LOOP ( 'NONE', ( #23 ) ) ;
#274 = PERSON_AND_ORGANIZATION ( #217, #249 ) ;
#275 = CLOSED_SHELL ( 'NONE', ( #196, #233, #257 ) ) ;
#276 = EDGE_LOOP ( 'NONE', ( #83 ) ) ;
#277 = DIRECTION ( 'NONE',  ( 0.0000000000000000000, 1.000000000000000000, 0.0000000000000000000 ) ) ;
#278 = APPLICATION_CONTEXT ( 'configuration controlled 3d designs of mechanical parts and assemblies' ) ;
#279 = APPROVAL_STATUS ( 'not_yet_approved' ) ;
#280 = DIRECTION ( 'NONE',  ( 0.0000000000000000000, 1.000000000000000000, 0.0000000000000000000 ) ) ;
#281 = AXIS2_PLACEMENT_3D ( 'NONE', #168, #1, #164 ) ;
#282 = PRODUCT_DEFINITION_FORMATION_WITH_SPECIFIED_SOURCE ( 'ANY', '', #152, .NOT_KNOWN. ) ;
#283 = CARTESIAN_POINT ( 'NONE',  ( 1.850485109586860678E-14, -6.183061578511228612E-16, 5.299999999999999822 ) ) ;
#284 = DIRECTION ( 'NONE',  ( 4.297438338149754172E-31, 1.000000000000000000, 1.230835259046140666E-16 ) ) ;
#285 = DIRECTION ( 'NONE',  ( 0.0000000000000000000, 1.000000000000000000, 0.0000000000000000000 ) ) ;
#286 = CIRCLE ( 'NONE', #261, 2.400000000000003020 ) ;
#287 = EDGE_CURVE ( 'NONE', #100, #100, #39, .T. ) ;
#288 = FACE_OUTER_BOUND ( 'NONE', #195, .T. ) ;
#289 =( LENGTH_UNIT ( ) NAMED_UNIT ( * ) SI_UNIT ( .MILLI., .METRE. ) );
#290 = VERTEX_POINT ( 'NONE', #127 ) ;
#291 = AXIS2_PLACEMENT_3D ( 'NONE', #147, #10, #285 ) ;
#292 = DIRECTION ( 'NONE',  ( -3.491481338843133355E-15, 1.230835259046140666E-16, -1.000000000000000000 ) ) ;
#293 = MECHANICAL_CONTEXT ( 'NONE', #278, 'mechanical' ) ;
#294 = PRODUCT_DEFINITION ( 'UNKNOWN', '', #282, #156 ) ;
#295 = CIRCLE ( 'NONE', #271, 1.350000000000000089 ) ;
#296 = APPROVAL_PERSON_ORGANIZATION ( #67, #242, #227 ) ;
#297 = ORIENTED_EDGE ( 'NONE', *, *, #224, .F. ) ;
#298 = CARTESIAN_POINT ( 'NONE',  ( 1.920314736363723472E-13, -6.735557395310442615E-15, 55.00000000000000000 ) ) ;
#299 = EDGE_CURVE ( 'NONE', #173, #173, #301, .T. ) ;
#300 = APPROVAL_DATE_TIME ( #225, #242 ) ;
#301 = CIRCLE ( 'NONE', #209, 0.8999999999999998002 ) ;
#302 = ORIENTED_EDGE ( 'NONE', *, *, #287, .F. ) ;
#303 = COORDINATED_UNIVERSAL_TIME_OFFSET ( 1, 0, .AHEAD. ) ;
ENDSEC;
END-ISO-10303-21;
