ISO-10303-21;
HEADER;
FILE_DESCRIPTION (( 'STEP AP203' ),
    '1' );
FILE_NAME ('388811.step',
    '2021-12-13T10:25:58',
    ( '' ),
    ( '' ),
    'SwSTEP 2.0',
    'SolidWorks 2019',
    '' );
FILE_SCHEMA (( 'CONFIG_CONTROL_DESIGN' ));
ENDSEC;

DATA;
#1 = COORDINATED_UNIVERSAL_TIME_OFFSET ( 1, 0, .AHEAD. ) ;
#2 = DIRECTION ( 'NONE',  ( 4.280716788195864664E-31, 1.000000000000000000, 1.226046016793043122E-16 ) ) ;
#3 = VERTEX_POINT ( 'NONE', #102 ) ;
#4 = CARTESIAN_POINT ( 'NONE',  ( 1.920314736363723472E-13, -6.735557395310442615E-15, 55.00000000000000000 ) ) ;
#5 = AXIS2_PLACEMENT_3D ( 'NONE', #8, #158, #134 ) ;
#6 = DIRECTION ( 'NONE',  ( 0.0000000000000000000, -1.000000000000000000, 0.0000000000000000000 ) ) ;
#7 = EDGE_CURVE ( 'NONE', #90, #90, #304, .T. ) ;
#8 = CARTESIAN_POINT ( 'NONE',  ( 1.780655482809998011E-14, -6.175877715131573420E-16, 5.100000000000000533 ) ) ;
#9 = CARTESIAN_POINT ( 'NONE',  ( 1.920314736363723472E-13, -6.735557395310442615E-15, 55.00000000000000000 ) ) ;
#10 = SECURITY_CLASSIFICATION ( '', '', #146 ) ;
#11 = EDGE_CURVE ( 'NONE', #283, #283, #237, .T. ) ;
#12 = DIRECTION ( 'NONE',  ( -4.280716788195864664E-31, -1.000000000000000000, -1.226046016793043122E-16 ) ) ;
#13 = VERTEX_POINT ( 'NONE', #112 ) ;
#14 = AXIS2_PLACEMENT_3D ( 'NONE', #15, #214, #169 ) ;
#15 = CARTESIAN_POINT ( 'NONE',  ( 1.899365848330664293E-13, -6.661994634302859914E-15, 54.39999999999999858 ) ) ;
#16 = DIRECTION ( 'NONE',  ( 3.491481338843133355E-15, -1.226046016793043122E-16, 1.000000000000000000 ) ) ;
#17 = CC_DESIGN_PERSON_AND_ORGANIZATION_ASSIGNMENT ( #119, #122, ( #96 ) ) ;
#18 = AXIS2_PLACEMENT_3D ( 'NONE', #217, #16, #73 ) ;
#19 = CALENDAR_DATE ( 2021, 13, 12 ) ;
#20 = ORIENTED_EDGE ( 'NONE', *, *, #261, .T. ) ;
#21 = PERSON_AND_ORGANIZATION ( #264, #97 ) ;
#22 = FACE_OUTER_BOUND ( 'NONE', #254, .T. ) ;
#23 = APPROVAL_PERSON_ORGANIZATION ( #50, #84, #149 ) ;
#24 = CARTESIAN_POINT ( 'NONE',  ( 1.815570296198430607E-14, -6.298482316810877264E-16, 5.200000000000002842 ) ) ;
#25 = FACE_BOUND ( 'NONE', #171, .T. ) ;
#26 = EDGE_CURVE ( 'NONE', #131, #131, #238, .T. ) ;
#27 = DIRECTION ( 'NONE',  ( 3.491481338843133355E-15, -1.226046016793043122E-16, 1.000000000000000000 ) ) ;
#28 = AXIS2_PLACEMENT_3D ( 'NONE', #276, #270, #213 ) ;
#29 = DIRECTION ( 'NONE',  ( 0.0000000000000000000, -1.000000000000000000, 0.0000000000000000000 ) ) ;
#30 = VERTEX_POINT ( 'NONE', #175 ) ;
#31 = CYLINDRICAL_SURFACE ( 'NONE', #143, 0.8499999999999996447 ) ;
#32 = PRODUCT_DEFINITION_SHAPE ( 'NONE', 'NONE',  #96 ) ;
#33 = EDGE_CURVE ( 'NONE', #13, #13, #123, .T. ) ;
#34 = DIRECTION ( 'NONE',  ( -3.491481338843133355E-15, 1.224646799147353207E-16, -1.000000000000000000 ) ) ;
#35 = ADVANCED_BREP_SHAPE_REPRESENTATION ( '388811', ( #81, #192, #156 ), #233 ) ;
#36 = CARTESIAN_POINT ( 'NONE',  ( 1.256933281983527692E-14, -0.8500000000000003109, 3.599999999999999201 ) ) ;
#37 = APPROVAL ( #42, 'UNSPECIFIED' ) ;
#38 = ORIENTED_EDGE ( 'NONE', *, *, #26, .F. ) ;
#39 = AXIS2_PLACEMENT_3D ( 'NONE', #250, #113, #132 ) ;
#40 = PLANE ( 'NONE',  #118 ) ;
#41 = CC_DESIGN_DATE_AND_TIME_ASSIGNMENT ( #286, #295, ( #10 ) ) ;
#42 = APPROVAL_STATUS ( 'not_yet_approved' ) ;
#43 = CLOSED_SHELL ( 'NONE', ( #236, #160, #164, #166, #211, #68, #109, #60, #138, #317 ) ) ;
#44 = DATE_TIME_ROLE ( 'creation_date' ) ;
#45 = APPLICATION_CONTEXT ( 'configuration controlled 3d designs of mechanical parts and assemblies' ) ;
#46 = CARTESIAN_POINT ( 'NONE',  ( 1.899365848330664293E-13, -6.661994634302859914E-15, 54.39999999999999858 ) ) ;
#47 = PERSON_AND_ORGANIZATION_ROLE ( 'design_supplier' ) ;
#48 = EDGE_LOOP ( 'NONE', ( #38 ) ) ;
#49 = CC_DESIGN_PERSON_AND_ORGANIZATION_ASSIGNMENT ( #76, #47, ( #165 ) ) ;
#50 = PERSON_AND_ORGANIZATION ( #264, #97 ) ;
#51 = FACE_BOUND ( 'NONE', #114, .T. ) ;
#52 = APPROVAL_DATE_TIME ( #94, #309 ) ;
#53 = DIRECTION ( 'NONE',  ( 0.0000000000000000000, 0.0000000000000000000, 1.000000000000000000 ) ) ;
#54 = DIRECTION ( 'NONE',  ( -3.491481338843133355E-15, 1.224646799147353207E-16, -1.000000000000000000 ) ) ;
#55 = APPLICATION_PROTOCOL_DEFINITION ( 'international standard', 'config_control_design', 1994, #45 ) ;
#56 = PLANE ( 'NONE',  #274 ) ;
#57 = FACE_OUTER_BOUND ( 'NONE', #66, .T. ) ;
#58 = CIRCLE ( 'NONE', #316, 2.950000000000001066 ) ;
#59 = CARTESIAN_POINT ( 'NONE',  ( 1.256933281983528008E-14, -4.408728476930471151E-16, 3.600000000000000089 ) ) ;
#60 = ADVANCED_FACE ( 'NONE', ( #51, #197 ), #161, .T. ) ;
#61 = EDGE_LOOP ( 'NONE', ( #187 ) ) ;
#62 = FACE_OUTER_BOUND ( 'NONE', #262, .T. ) ;
#63 = ORIENTED_EDGE ( 'NONE', *, *, #288, .F. ) ;
#64 = AXIS2_PLACEMENT_3D ( 'NONE', #202, #27, #29 ) ;
#65 = ORIENTED_EDGE ( 'NONE', *, *, #72, .T. ) ;
#66 = EDGE_LOOP ( 'NONE', ( #188 ) ) ;
#67 = AXIS2_PLACEMENT_3D ( 'NONE', #135, #227, #230 ) ;
#68 = ADVANCED_FACE ( 'NONE', ( #75, #126 ), #40, .F. ) ;
#69 = DATE_AND_TIME ( #198, #206 ) ;
#70 = DIRECTION ( 'NONE',  ( 0.0000000000000000000, -1.000000000000000000, 0.0000000000000000000 ) ) ;
#71 = APPROVAL_DATE_TIME ( #69, #84 ) ;
#72 = EDGE_CURVE ( 'NONE', #307, #307, #58, .T. ) ;
#73 = DIRECTION ( 'NONE',  ( 0.0000000000000000000, -1.000000000000000000, 0.0000000000000000000 ) ) ;
#74 = DATE_AND_TIME ( #263, #178 ) ;
#75 = FACE_OUTER_BOUND ( 'NONE', #222, .T. ) ;
#76 = PERSON_AND_ORGANIZATION ( #264, #97 ) ;
#77 = DIRECTION ( 'NONE',  ( 3.491481338843133355E-15, -1.226046016793043122E-16, 1.000000000000000000 ) ) ;
#78 = AXIS2_PLACEMENT_3D ( 'NONE', #300, #201, #80 ) ;
#79 = CC_DESIGN_PERSON_AND_ORGANIZATION_ASSIGNMENT ( #225, #105, ( #203 ) ) ;
#80 = DIRECTION ( 'NONE',  ( 0.0000000000000000000, -1.000000000000000000, 0.0000000000000000000 ) ) ;
#81 = MANIFOLD_SOLID_BREP ( 'Corps-Déplacer/Copier4[1]', #43 ) ;
#82 = FACE_OUTER_BOUND ( 'NONE', #323, .T. ) ;
#83 = AXIS2_PLACEMENT_3D ( 'NONE', #46, #242, #294 ) ;
#84 = APPROVAL ( #292, 'UNSPECIFIED' ) ;
#85 = DIRECTION ( 'NONE',  ( 3.491481338843133355E-15, -1.226046016793043122E-16, 1.000000000000000000 ) ) ;
#86 = CARTESIAN_POINT ( 'NONE',  ( 1.815570296198430607E-14, -6.298482316810877264E-16, 5.200000000000002842 ) ) ;
#87 = ORIENTED_EDGE ( 'NONE', *, *, #33, .T. ) ;
#88 = AXIS2_PLACEMENT_3D ( 'NONE', #319, #245, #168 ) ;
#89 = ORIENTED_EDGE ( 'NONE', *, *, #190, .F. ) ;
#90 = VERTEX_POINT ( 'NONE', #36 ) ;
#91 = ORIENTED_EDGE ( 'NONE', *, *, #293, .T. ) ;
#92 = CIRCLE ( 'NONE', #279, 0.8525015644561815265 ) ;
#93 = DATE_AND_TIME ( #19, #243 ) ;
#94 = DATE_AND_TIME ( #216, #173 ) ;
#95 = COORDINATED_UNIVERSAL_TIME_OFFSET ( 1, 0, .AHEAD. ) ;
#96 = PRODUCT_DEFINITION ( 'UNKNOWN', '', #165, #281 ) ;
#97 = ORGANIZATION ( 'UNSPECIFIED', 'UNSPECIFIED', '' ) ;
#98 = CC_DESIGN_SECURITY_CLASSIFICATION ( #10, ( #165 ) ) ;
#99 = DIRECTION ( 'NONE',  ( 3.491481338843133355E-15, -1.226046016793043122E-16, 1.000000000000000000 ) ) ;
#100 = CC_DESIGN_DATE_AND_TIME_ASSIGNMENT ( #74, #44, ( #96 ) ) ;
#101 = DIRECTION ( 'NONE',  ( 0.0000000000000000000, -1.000000000000000000, 0.0000000000000000000 ) ) ;
#102 = CARTESIAN_POINT ( 'NONE',  ( 1.920314736363723472E-13, -2.400000000000009681, 55.00000000000000000 ) ) ;
#103 = CIRCLE ( 'NONE', #78, 2.999999999999997780 ) ;
#104 = CARTESIAN_POINT ( 'NONE',  ( -1.710369194620682099E-31, 5.999167563205359548E-33, -4.898692069731626762E-17 ) ) ;
#105 = PERSON_AND_ORGANIZATION_ROLE ( 'design_owner' ) ;
#106 = CARTESIAN_POINT ( 'NONE',  ( 5.411796075206856701E-14, -2.999999999999999556, 15.50000000000000000 ) ) ;
#107 = DIRECTION ( 'NONE',  ( -4.275831445896958607E-31, -1.000000000000000000, -1.224646799147353207E-16 ) ) ;
#108 = DIRECTION ( 'NONE',  ( -4.390223156869099412E-31, -1.000000000000000000, -1.226046016793043122E-16 ) ) ;
#109 = ADVANCED_FACE ( 'NONE', ( #22, #239 ), #124, .T. ) ;
#110 = DIRECTION ( 'NONE',  ( 3.491481338843133355E-15, -1.226046016793043122E-16, 1.000000000000000000 ) ) ;
#111 = CC_DESIGN_APPROVAL ( #84, ( #165 ) ) ;
#112 = CARTESIAN_POINT ( 'NONE',  ( 2.137183397710479182E-32, 0.8499999999999994227, 6.121136532892404794E-18 ) ) ;
#113 = DIRECTION ( 'NONE',  ( 3.491481338843133355E-15, -1.224646799147353207E-16, 1.000000000000000000 ) ) ;
#114 = EDGE_LOOP ( 'NONE', ( #266 ) ) ;
#115 = CIRCLE ( 'NONE', #312, 0.8499999999999998668 ) ;
#116 = CARTESIAN_POINT ( 'NONE',  ( 5.411796075206856701E-14, -1.892675628977921656E-15, 15.50000000000000000 ) ) ;
#117 = CARTESIAN_POINT ( 'NONE',  ( 5.411796075206856701E-14, 2.999999999999995559, 15.50000000000000000 ) ) ;
#118 = AXIS2_PLACEMENT_3D ( 'NONE', #117, #151, #258 ) ;
#119 = PERSON_AND_ORGANIZATION ( #264, #97 ) ;
#120 = CARTESIAN_POINT ( 'NONE',  ( 1.815570296198430607E-14, -0.8525015644561821926, 5.200000000000002842 ) ) ;
#121 = EDGE_LOOP ( 'NONE', ( #91 ) ) ;
#122 = PERSON_AND_ORGANIZATION_ROLE ( 'creator' ) ;
#123 = CIRCLE ( 'NONE', #226, 0.8499999999999994227 ) ;
#124 = CYLINDRICAL_SURFACE ( 'NONE', #88, 3.000000000000000000 ) ;
#125 =( NAMED_UNIT ( * ) SI_UNIT ( $, .STERADIAN. ) SOLID_ANGLE_UNIT ( ) );
#126 = FACE_BOUND ( 'NONE', #162, .T. ) ;
#127 = APPLICATION_PROTOCOL_DEFINITION ( 'international standard', 'config_control_design', 1994, #163 ) ;
#128 = FACE_BOUND ( 'NONE', #180, .T. ) ;
#129 = TOROIDAL_SURFACE ( 'NONE', #215, 2.850000000000000089, 2.000000000000000444 ) ;
#130 = PLANE ( 'NONE',  #260 ) ;
#131 = VERTEX_POINT ( 'NONE', #228 ) ;
#132 = DIRECTION ( 'NONE',  ( -4.275831445896958607E-31, -1.000000000000000000, -1.224646799147353207E-16 ) ) ;
#133 = EDGE_LOOP ( 'NONE', ( #280 ) ) ;
#134 = DIRECTION ( 'NONE',  ( 0.0000000000000000000, -1.000000000000000000, 0.0000000000000000000 ) ) ;
#135 = CARTESIAN_POINT ( 'NONE',  ( 1.920314736363723472E-13, -6.735557395310442615E-15, 55.00000000000000000 ) ) ;
#136 = CC_DESIGN_APPROVAL ( #37, ( #96 ) ) ;
#137 = CARTESIAN_POINT ( 'NONE',  ( 5.411796075206856701E-14, -2.950000000000002842, 15.50000000000000000 ) ) ;
#138 = ADVANCED_FACE ( 'NONE', ( #289 ), #142, .F. ) ;
#139 = EDGE_LOOP ( 'NONE', ( #87 ) ) ;
#140 = APPROVAL_PERSON_ORGANIZATION ( #321, #37, #290 ) ;
#141 = EDGE_LOOP ( 'NONE', ( #63 ) ) ;
#142 = PLANE ( 'NONE',  #200 ) ;
#143 = AXIS2_PLACEMENT_3D ( 'NONE', #4, #155, #6 ) ;
#144 = PERSON_AND_ORGANIZATION ( #264, #97 ) ;
#145 = ORIENTED_EDGE ( 'NONE', *, *, #7, .F. ) ;
#146 = SECURITY_CLASSIFICATION_LEVEL ( 'unclassified' ) ;
#147 = ORIENTED_EDGE ( 'NONE', *, *, #148, .T. ) ;
#148 = EDGE_CURVE ( 'NONE', #256, #256, #320, .T. ) ;
#149 = APPROVAL_ROLE ( '' ) ;
#150 =( NAMED_UNIT ( * ) PLANE_ANGLE_UNIT ( ) SI_UNIT ( $, .RADIAN. ) );
#151 = DIRECTION ( 'NONE',  ( 3.491481338843133355E-15, -1.226046016793043122E-16, 1.000000000000000000 ) ) ;
#152 = DIRECTION ( 'NONE',  ( 1.000000000000000000, 0.0000000000000000000, 0.0000000000000000000 ) ) ;
#153 = DIRECTION ( 'NONE',  ( 3.491481338843133355E-15, -1.226046016793043122E-16, 1.000000000000000000 ) ) ;
#154 = MECHANICAL_CONTEXT ( 'NONE', #45, 'mechanical' ) ;
#155 = DIRECTION ( 'NONE',  ( 3.491481338843133355E-15, -1.226046016793043122E-16, 1.000000000000000000 ) ) ;
#156 = AXIS2_PLACEMENT_3D ( 'NONE', #246, #53, #152 ) ;
#157 = FACE_OUTER_BOUND ( 'NONE', #265, .T. ) ;
#158 = DIRECTION ( 'NONE',  ( 3.491481338843133355E-15, -1.226046016793043122E-16, 1.000000000000000000 ) ) ;
#159 = CYLINDRICAL_SURFACE ( 'NONE', #231, 0.8499999999999996447 ) ;
#160 = ADVANCED_FACE ( 'NONE', ( #247, #62 ), #129, .F. ) ;
#161 = CONICAL_SURFACE ( 'NONE', #83, 3.000000000000002220, 0.7853981633974450594 ) ;
#162 = EDGE_LOOP ( 'NONE', ( #65 ) ) ;
#163 = APPLICATION_CONTEXT ( 'configuration controlled 3d designs of mechanical parts and assemblies' ) ;
#164 = ADVANCED_FACE ( 'NONE', ( #57, #25 ), #56, .F. ) ;
#165 = PRODUCT_DEFINITION_FORMATION_WITH_SPECIFIED_SOURCE ( 'ANY', '', #203, .NOT_KNOWN. ) ;
#166 = ADVANCED_FACE ( 'NONE', ( #308, #128 ), #185, .T. ) ;
#167 = AXIS2_PLACEMENT_3D ( 'NONE', #9, #110, #207 ) ;
#168 = DIRECTION ( 'NONE',  ( 0.0000000000000000000, -1.000000000000000000, 0.0000000000000000000 ) ) ;
#169 = DIRECTION ( 'NONE',  ( 0.0000000000000000000, -1.000000000000000000, 0.0000000000000000000 ) ) ;
#170 = VERTEX_POINT ( 'NONE', #298 ) ;
#171 = EDGE_LOOP ( 'NONE', ( #20 ) ) ;
#172 = APPROVAL_STATUS ( 'not_yet_approved' ) ;
#173 = LOCAL_TIME ( 11, 25, 58.00000000000000000, #269 ) ;
#174 = DIRECTION ( 'NONE',  ( 0.0000000000000000000, -1.000000000000000000, 0.0000000000000000000 ) ) ;
#175 = CARTESIAN_POINT ( 'NONE',  ( 1.780655482809998011E-14, -0.8500000000000000888, 5.100000000000000533 ) ) ;
#176 = CYLINDRICAL_SURFACE ( 'NONE', #67, 2.950000000000000622 ) ;
#177 = FACE_OUTER_BOUND ( 'NONE', #315, .T. ) ;
#178 = LOCAL_TIME ( 11, 25, 58.00000000000000000, #95 ) ;
#179 = FACE_OUTER_BOUND ( 'NONE', #61, .T. ) ;
#180 = EDGE_LOOP ( 'NONE', ( #194 ) ) ;
#181 = PLANE ( 'NONE',  #28 ) ;
#182 = ADVANCED_FACE ( 'NONE', ( #204, #177 ), #159, .T. ) ;
#183 = EDGE_LOOP ( 'NONE', ( #147 ) ) ;
#184 = EDGE_LOOP ( 'NONE', ( #145 ) ) ;
#185 = CONICAL_SURFACE ( 'NONE', #64, 1.349999999999999867, 0.2094395102393127872 ) ;
#186 = CARTESIAN_POINT ( 'NONE',  ( 1.899365848330664293E-13, -3.000000000000009326, 54.39999999999999858 ) ) ;
#187 = ORIENTED_EDGE ( 'NONE', *, *, #72, .F. ) ;
#188 = ORIENTED_EDGE ( 'NONE', *, *, #11, .F. ) ;
#189 = LOCAL_TIME ( 11, 25, 58.00000000000000000, #1 ) ;
#190 = EDGE_CURVE ( 'NONE', #303, #303, #103, .T. ) ;
#191 = PERSON_AND_ORGANIZATION ( #264, #97 ) ;
#192 = MANIFOLD_SOLID_BREP ( 'Corps-Déplacer/Copier4[2]', #249 ) ;
#193 = APPROVAL_ROLE ( '' ) ;
#194 = ORIENTED_EDGE ( 'NONE', *, *, #11, .T. ) ;
#195 = CARTESIAN_POINT ( 'NONE',  ( 1.920314736363723472E-13, -6.735557395310442615E-15, 55.00000000000000000 ) ) ;
#196 = CALENDAR_DATE ( 2021, 13, 12 ) ;
#197 = FACE_OUTER_BOUND ( 'NONE', #183, .T. ) ;
#198 = CALENDAR_DATE ( 2021, 13, 12 ) ;
#199 = CARTESIAN_POINT ( 'NONE',  ( -3.420738389241364199E-31, 1.199833512641071910E-32, -9.797384139463253523E-17 ) ) ;
#200 = AXIS2_PLACEMENT_3D ( 'NONE', #195, #235, #2 ) ;
#201 = DIRECTION ( 'NONE',  ( 3.491481338843133355E-15, -1.226046016793043122E-16, 1.000000000000000000 ) ) ;
#202 = CARTESIAN_POINT ( 'NONE',  ( 1.815570296198430607E-14, -6.298482316810877264E-16, 5.200000000000002842 ) ) ;
#203 = PRODUCT ( '388811', '388811', '', ( #154 ) ) ;
#204 = FACE_OUTER_BOUND ( 'NONE', #205, .T. ) ;
#205 = EDGE_LOOP ( 'NONE', ( #255 ) ) ;
#206 = LOCAL_TIME ( 11, 25, 58.00000000000000000, #223 ) ;
#207 = DIRECTION ( 'NONE',  ( 0.0000000000000000000, -1.000000000000000000, 0.0000000000000000000 ) ) ;
#208 = ORIENTED_EDGE ( 'NONE', *, *, #288, .T. ) ;
#209 = FACE_OUTER_BOUND ( 'NONE', #141, .T. ) ;
#210 = ORIENTED_EDGE ( 'NONE', *, *, #148, .F. ) ;
#211 = ADVANCED_FACE ( 'NONE', ( #179, #157 ), #176, .T. ) ;
#212 = ORIENTED_EDGE ( 'NONE', *, *, #261, .F. ) ;
#213 = DIRECTION ( 'NONE',  ( -4.280716788195864664E-31, -1.000000000000000000, -1.226046016793043122E-16 ) ) ;
#214 = DIRECTION ( 'NONE',  ( 3.491481338843133355E-15, -1.226046016793043122E-16, 1.000000000000000000 ) ) ;
#215 = AXIS2_PLACEMENT_3D ( 'NONE', #302, #251, #108 ) ;
#216 = CALENDAR_DATE ( 2021, 13, 12 ) ;
#217 = CARTESIAN_POINT ( 'NONE',  ( 1.256933281983527692E-14, -4.336808689942002452E-16, 3.599999999999999201 ) ) ;
#218 = AXIS2_PLACEMENT_3D ( 'NONE', #24, #99, #101 ) ;
#219 =( LENGTH_UNIT ( ) NAMED_UNIT ( * ) SI_UNIT ( .MILLI., .METRE. ) );
#220 = CC_DESIGN_APPROVAL ( #309, ( #10 ) ) ;
#221 = DIRECTION ( 'NONE',  ( 4.275831445896958607E-31, 1.000000000000000000, 1.224646799147352961E-16 ) ) ;
#222 = EDGE_LOOP ( 'NONE', ( #89 ) ) ;
#223 = COORDINATED_UNIVERSAL_TIME_OFFSET ( 1, 0, .AHEAD. ) ;
#224 = CARTESIAN_POINT ( 'NONE',  ( 0.0000000000000000000, 0.0000000000000000000, 0.0000000000000000000 ) ) ;
#225 = PERSON_AND_ORGANIZATION ( #264, #97 ) ;
#226 = AXIS2_PLACEMENT_3D ( 'NONE', #199, #282, #221 ) ;
#227 = DIRECTION ( 'NONE',  ( 3.491481338843133355E-15, -1.226046016793043122E-16, 1.000000000000000000 ) ) ;
#228 = CARTESIAN_POINT ( 'NONE',  ( 4.443750813543088775E-14, -2.950000000000002398, 12.72740817516578637 ) ) ;
#229 = DIRECTION ( 'NONE',  ( 0.0000000000000000000, 1.000000000000000000, 0.0000000000000000000 ) ) ;
#230 = DIRECTION ( 'NONE',  ( 0.0000000000000000000, -1.000000000000000000, 0.0000000000000000000 ) ) ;
#231 = AXIS2_PLACEMENT_3D ( 'NONE', #224, #34, #273 ) ;
#232 = FACE_OUTER_BOUND ( 'NONE', #139, .T. ) ;
#233 =( GEOMETRIC_REPRESENTATION_CONTEXT ( 3 ) GLOBAL_UNCERTAINTY_ASSIGNED_CONTEXT ( ( #285 ) ) GLOBAL_UNIT_ASSIGNED_CONTEXT ( ( #219, #150, #125 ) ) REPRESENTATION_CONTEXT ( 'NONE', 'WORKASPACE' ) );
#234 = CARTESIAN_POINT ( 'NONE',  ( 4.443750813543088775E-14, -1.552743112674828039E-15, 12.72740817516578637 ) ) ;
#235 = DIRECTION ( 'NONE',  ( -3.491481338843133355E-15, 1.226046016793043122E-16, -1.000000000000000000 ) ) ;
#236 = ADVANCED_FACE ( 'NONE', ( #209, #82 ), #31, .T. ) ;
#237 = CIRCLE ( 'NONE', #218, 1.349999999999999867 ) ;
#238 = CIRCLE ( 'NONE', #284, 2.950000000000000622 ) ;
#239 = FACE_OUTER_BOUND ( 'NONE', #311, .T. ) ;
#240 = ADVANCED_FACE ( 'NONE', ( #232 ), #130, .F. ) ;
#241 = PERSON_AND_ORGANIZATION_ROLE ( 'classification_officer' ) ;
#242 = DIRECTION ( 'NONE',  ( -3.491481338843133355E-15, 1.226046016793043122E-16, -1.000000000000000000 ) ) ;
#243 = LOCAL_TIME ( 11, 25, 58.00000000000000000, #259 ) ;
#244 = PERSON_AND_ORGANIZATION_ROLE ( 'creator' ) ;
#245 = DIRECTION ( 'NONE',  ( 3.491481338843133355E-15, -1.226046016793043122E-16, 1.000000000000000000 ) ) ;
#246 = CARTESIAN_POINT ( 'NONE',  ( 0.0000000000000000000, 0.0000000000000000000, 0.0000000000000000000 ) ) ;
#247 = FACE_OUTER_BOUND ( 'NONE', #306, .T. ) ;
#248 = DIRECTION ( 'NONE',  ( 0.0000000000000000000, -1.000000000000000000, 0.0000000000000000000 ) ) ;
#249 = CLOSED_SHELL ( 'NONE', ( #240, #182, #257 ) ) ;
#250 = CARTESIAN_POINT ( 'NONE',  ( 1.256933281983528008E-14, 6.373979076312887991E-33, 3.600000000000000089 ) ) ;
#251 = DIRECTION ( 'NONE',  ( 3.491481338843133355E-15, -1.226046016793043122E-16, 1.000000000000000000 ) ) ;
#252 = CARTESIAN_POINT ( 'NONE',  ( 1.815570296198429345E-14, 0.8525015644561808603, 5.200000000000000178 ) ) ;
#253 = CIRCLE ( 'NONE', #5, 0.8499999999999994227 ) ;
#254 = EDGE_LOOP ( 'NONE', ( #210 ) ) ;
#255 = ORIENTED_EDGE ( 'NONE', *, *, #33, .F. ) ;
#256 = VERTEX_POINT ( 'NONE', #186 ) ;
#257 = ADVANCED_FACE ( 'NONE', ( #275 ), #271, .T. ) ;
#258 = DIRECTION ( 'NONE',  ( -4.280716788195864664E-31, -1.000000000000000000, -1.226046016793043122E-16 ) ) ;
#259 = COORDINATED_UNIVERSAL_TIME_OFFSET ( 1, 0, .AHEAD. ) ;
#260 = AXIS2_PLACEMENT_3D ( 'NONE', #104, #299, #107 ) ;
#261 = EDGE_CURVE ( 'NONE', #301, #301, #92, .T. ) ;
#262 = EDGE_LOOP ( 'NONE', ( #208 ) ) ;
#263 = CALENDAR_DATE ( 2021, 13, 12 ) ;
#264 = PERSON ( 'UNSPECIFIED', 'UNSPECIFIED', 'UNSPECIFIED', ('UNSPECIFIED'), ('UNSPECIFIED'), ('UNSPECIFIED') ) ;
#265 = EDGE_LOOP ( 'NONE', ( #291 ) ) ;
#266 = ORIENTED_EDGE ( 'NONE', *, *, #293, .F. ) ;
#267 = EDGE_CURVE ( 'NONE', #170, #170, #115, .T. ) ;
#268 = APPROVAL_PERSON_ORGANIZATION ( #144, #309, #193 ) ;
#269 = COORDINATED_UNIVERSAL_TIME_OFFSET ( 1, 0, .AHEAD. ) ;
#270 = DIRECTION ( 'NONE',  ( 3.491481338843133355E-15, -1.226046016793043122E-16, 1.000000000000000000 ) ) ;
#271 = PLANE ( 'NONE',  #39 ) ;
#272 = CARTESIAN_POINT ( 'NONE',  ( 1.815570296198430607E-14, -1.350000000000000533, 5.200000000000002842 ) ) ;
#273 = DIRECTION ( 'NONE',  ( 4.275831445896958607E-31, 1.000000000000000000, 1.224646799147353207E-16 ) ) ;
#274 = AXIS2_PLACEMENT_3D ( 'NONE', #252, #153, #12 ) ;
#275 = FACE_OUTER_BOUND ( 'NONE', #133, .T. ) ;
#276 = CARTESIAN_POINT ( 'NONE',  ( 1.256933281983528008E-14, 0.8499999999999994227, 3.600000000000000089 ) ) ;
#277 = ORIENTED_EDGE ( 'NONE', *, *, #267, .T. ) ;
#278 = CC_DESIGN_PERSON_AND_ORGANIZATION_ASSIGNMENT ( #191, #244, ( #165 ) ) ;
#279 = AXIS2_PLACEMENT_3D ( 'NONE', #86, #85, #248 ) ;
#280 = ORIENTED_EDGE ( 'NONE', *, *, #267, .F. ) ;
#281 = DESIGN_CONTEXT ( 'detailed design', #163, 'design' ) ;
#282 = DIRECTION ( 'NONE',  ( -3.491481338843133355E-15, 1.224646799147353207E-16, -1.000000000000000000 ) ) ;
#283 = VERTEX_POINT ( 'NONE', #272 ) ;
#284 = AXIS2_PLACEMENT_3D ( 'NONE', #234, #296, #70 ) ;
#285 = UNCERTAINTY_MEASURE_WITH_UNIT (LENGTH_MEASURE( 1.000000000000000082E-05 ), #219, 'distance_accuracy_value', 'NONE');
#286 = DATE_AND_TIME ( #196, #189 ) ;
#287 = SHAPE_DEFINITION_REPRESENTATION ( #32, #35 ) ;
#288 = EDGE_CURVE ( 'NONE', #30, #30, #253, .T. ) ;
#289 = FACE_OUTER_BOUND ( 'NONE', #121, .T. ) ;
#290 = APPROVAL_ROLE ( '' ) ;
#291 = ORIENTED_EDGE ( 'NONE', *, *, #26, .T. ) ;
#292 = APPROVAL_STATUS ( 'not_yet_approved' ) ;
#293 = EDGE_CURVE ( 'NONE', #3, #3, #297, .T. ) ;
#294 = DIRECTION ( 'NONE',  ( 0.0000000000000000000, 1.000000000000000000, 0.0000000000000000000 ) ) ;
#295 = DATE_TIME_ROLE ( 'classification_date' ) ;
#296 = DIRECTION ( 'NONE',  ( 3.491481338843133355E-15, -1.226046016793043122E-16, 1.000000000000000000 ) ) ;
#297 = CIRCLE ( 'NONE', #167, 2.400000000000003020 ) ;
#298 = CARTESIAN_POINT ( 'NONE',  ( 1.256933281983528008E-14, 0.8499999999999994227, 3.600000000000000089 ) ) ;
#299 = DIRECTION ( 'NONE',  ( 3.491481338843133355E-15, -1.224646799147353207E-16, 1.000000000000000000 ) ) ;
#300 = CARTESIAN_POINT ( 'NONE',  ( 5.411796075206856701E-14, -1.892675628977921656E-15, 15.50000000000000000 ) ) ;
#301 = VERTEX_POINT ( 'NONE', #120 ) ;
#302 = CARTESIAN_POINT ( 'NONE',  ( 1.780655482809997696E-14, -8.673617379884035472E-16, 5.099999999999999645 ) ) ;
#303 = VERTEX_POINT ( 'NONE', #106 ) ;
#304 = CIRCLE ( 'NONE', #18, 0.8499999999999998668 ) ;
#305 = FACE_OUTER_BOUND ( 'NONE', #184, .T. ) ;
#306 = EDGE_LOOP ( 'NONE', ( #212 ) ) ;
#307 = VERTEX_POINT ( 'NONE', #137 ) ;
#308 = FACE_OUTER_BOUND ( 'NONE', #48, .T. ) ;
#309 = APPROVAL ( #172, 'UNSPECIFIED' ) ;
#310 = ORIENTED_EDGE ( 'NONE', *, *, #7, .T. ) ;
#311 = EDGE_LOOP ( 'NONE', ( #313 ) ) ;
#312 = AXIS2_PLACEMENT_3D ( 'NONE', #59, #54, #229 ) ;
#313 = ORIENTED_EDGE ( 'NONE', *, *, #190, .T. ) ;
#314 = CC_DESIGN_PERSON_AND_ORGANIZATION_ASSIGNMENT ( #21, #241, ( #10 ) ) ;
#315 = EDGE_LOOP ( 'NONE', ( #277 ) ) ;
#316 = AXIS2_PLACEMENT_3D ( 'NONE', #116, #77, #174 ) ;
#317 = ADVANCED_FACE ( 'NONE', ( #305 ), #181, .F. ) ;
#318 = APPROVAL_DATE_TIME ( #93, #37 ) ;
#319 = CARTESIAN_POINT ( 'NONE',  ( 1.920314736363723472E-13, -6.735557395310442615E-15, 55.00000000000000000 ) ) ;
#320 = CIRCLE ( 'NONE', #14, 3.000000000000002665 ) ;
#321 = PERSON_AND_ORGANIZATION ( #264, #97 ) ;
#322 = PRODUCT_RELATED_PRODUCT_CATEGORY ( 'detail', '', ( #203 ) ) ;
#323 = EDGE_LOOP ( 'NONE', ( #310 ) ) ;
ENDSEC;
END-ISO-10303-21;
