ISO-10303-21;
HEADER;
FILE_DESCRIPTION (( 'STEP AP203' ),
    '1' );
FILE_NAME ('388810.step',
    '2021-12-13T10:25:58',
    ( '' ),
    ( '' ),
    'SwSTEP 2.0',
    'SolidWorks 2019',
    '' );
FILE_SCHEMA (( 'CONFIG_CONTROL_DESIGN' ));
ENDSEC;

DATA;
#1 = DATE_AND_TIME ( #306, #14 ) ;
#2 = CARTESIAN_POINT ( 'NONE',  ( 1.920314736363723472E-13, -6.735557395310442615E-15, 55.00000000000000000 ) ) ;
#3 = SHAPE_DEFINITION_REPRESENTATION ( #210, #31 ) ;
#4 = DIRECTION ( 'NONE',  ( 4.275831445896958607E-31, 1.000000000000000000, 1.224646799147353207E-16 ) ) ;
#5 = AXIS2_PLACEMENT_3D ( 'NONE', #235, #232, #104 ) ;
#6 = PRODUCT_DEFINITION ( 'UNKNOWN', '', #177, #290 ) ;
#7 = FACE_BOUND ( 'NONE', #18, .T. ) ;
#8 = CARTESIAN_POINT ( 'NONE',  ( 5.411796075206856701E-14, -1.911446488537351074E-15, 15.50000000000000000 ) ) ;
#9 = DIRECTION ( 'NONE',  ( 3.491481338843133355E-15, -1.221293900448883903E-16, 1.000000000000000000 ) ) ;
#10 = APPROVAL_PERSON_ORGANIZATION ( #175, #271, #258 ) ;
#11 = APPROVAL ( #298, 'UNSPECIFIED' ) ;
#12 = CARTESIAN_POINT ( 'NONE',  ( 5.411796075206856701E-14, -2.999999999999999556, 15.50000000000000000 ) ) ;
#13 = DIRECTION ( 'NONE',  ( 0.0000000000000000000, -1.000000000000000000, 0.0000000000000000000 ) ) ;
#14 = LOCAL_TIME ( 11, 25, 58.00000000000000000, #50 ) ;
#15 = EDGE_LOOP ( 'NONE', ( #272 ) ) ;
#16 = FACE_OUTER_BOUND ( 'NONE', #246, .T. ) ;
#17 = ADVANCED_FACE ( 'NONE', ( #67, #62 ), #41, .T. ) ;
#18 = EDGE_LOOP ( 'NONE', ( #220 ) ) ;
#19 = PLANE ( 'NONE',  #263 ) ;
#20 = DIRECTION ( 'NONE',  ( 3.491481338843133355E-15, -1.221293900448883903E-16, 1.000000000000000000 ) ) ;
#21 = LOCAL_TIME ( 11, 25, 58.00000000000000000, #23 ) ;
#22 = ADVANCED_FACE ( 'NONE', ( #166 ), #19, .F. ) ;
#23 = COORDINATED_UNIVERSAL_TIME_OFFSET ( 1, 0, .AHEAD. ) ;
#24 = CYLINDRICAL_SURFACE ( 'NONE', #108, 2.950000000000000622 ) ;
#25 = DIRECTION ( 'NONE',  ( 3.491481338843133355E-15, -1.221293900448883903E-16, 1.000000000000000000 ) ) ;
#26 = PERSON_AND_ORGANIZATION ( #212, #311 ) ;
#27 = FACE_OUTER_BOUND ( 'NONE', #225, .T. ) ;
#28 = CC_DESIGN_PERSON_AND_ORGANIZATION_ASSIGNMENT ( #209, #202, ( #6 ) ) ;
#29 = AXIS2_PLACEMENT_3D ( 'NONE', #160, #35, #13 ) ;
#30 = DIRECTION ( 'NONE',  ( 0.0000000000000000000, -1.000000000000000000, 0.0000000000000000000 ) ) ;
#31 = ADVANCED_BREP_SHAPE_REPRESENTATION ( '388810', ( #236, #158, #143 ), #87 ) ;
#32 = SECURITY_CLASSIFICATION_LEVEL ( 'unclassified' ) ;
#33 = CARTESIAN_POINT ( 'NONE',  ( 1.815570296198430607E-14, -0.8404082057734585387, 5.200000000000002842 ) ) ;
#34 = EDGE_CURVE ( 'NONE', #57, #57, #287, .T. ) ;
#35 = DIRECTION ( 'NONE',  ( 3.491481338843133355E-15, -1.221293900448883903E-16, 1.000000000000000000 ) ) ;
#36 = FACE_OUTER_BOUND ( 'NONE', #222, .T. ) ;
#37 = CARTESIAN_POINT ( 'NONE',  ( 2.137183397710483288E-32, 0.7999999999999994893, 6.121136532892404794E-18 ) ) ;
#38 = AXIS2_PLACEMENT_3D ( 'NONE', #162, #282, #238 ) ;
#39 = EDGE_LOOP ( 'NONE', ( #117 ) ) ;
#40 = EDGE_CURVE ( 'NONE', #109, #109, #229, .T. ) ;
#41 = CYLINDRICAL_SURFACE ( 'NONE', #189, 3.000000000000000000 ) ;
#42 = ORIENTED_EDGE ( 'NONE', *, *, #40, .T. ) ;
#43 = CONICAL_SURFACE ( 'NONE', #303, 1.349999999999999867, 0.2094395102393127872 ) ;
#44 = ORIENTED_EDGE ( 'NONE', *, *, #314, .T. ) ;
#45 = DIRECTION ( 'NONE',  ( 0.0000000000000000000, -1.000000000000000000, 0.0000000000000000000 ) ) ;
#46 = DIRECTION ( 'NONE',  ( -4.275831445896958607E-31, -1.000000000000000000, -1.224646799147353207E-16 ) ) ;
#47 = ADVANCED_FACE ( 'NONE', ( #16, #247 ), #65, .F. ) ;
#48 = COORDINATED_UNIVERSAL_TIME_OFFSET ( 1, 0, .AHEAD. ) ;
#49 = DIRECTION ( 'NONE',  ( 0.0000000000000000000, -1.000000000000000000, 0.0000000000000000000 ) ) ;
#50 = COORDINATED_UNIVERSAL_TIME_OFFSET ( 1, 0, .AHEAD. ) ;
#51 = DIRECTION ( 'NONE',  ( 0.0000000000000000000, -1.000000000000000000, 0.0000000000000000000 ) ) ;
#52 = CC_DESIGN_DATE_AND_TIME_ASSIGNMENT ( #227, #78, ( #244 ) ) ;
#53 = DIRECTION ( 'NONE',  ( -3.491481338843133355E-15, 1.224646799147353207E-16, -1.000000000000000000 ) ) ;
#54 = DIRECTION ( 'NONE',  ( 0.0000000000000000000, 1.000000000000000000, 0.0000000000000000000 ) ) ;
#55 = AXIS2_PLACEMENT_3D ( 'NONE', #208, #53, #157 ) ;
#56 = DATE_AND_TIME ( #251, #156 ) ;
#57 = VERTEX_POINT ( 'NONE', #312 ) ;
#58 = CARTESIAN_POINT ( 'NONE',  ( 1.187103655206665183E-14, 0.7999999999999994893, 3.399999999999999911 ) ) ;
#59 = VERTEX_POINT ( 'NONE', #133 ) ;
#60 = CC_DESIGN_SECURITY_CLASSIFICATION ( #244, ( #177 ) ) ;
#61 = LOCAL_TIME ( 11, 25, 58.00000000000000000, #233 ) ;
#62 = FACE_OUTER_BOUND ( 'NONE', #70, .T. ) ;
#63 = ADVANCED_FACE ( 'NONE', ( #195, #293 ), #43, .T. ) ;
#64 = APPLICATION_PROTOCOL_DEFINITION ( 'international standard', 'config_control_design', 1994, #218 ) ;
#65 = PLANE ( 'NONE',  #170 ) ;
#66 = EDGE_LOOP ( 'NONE', ( #93 ) ) ;
#67 = FACE_OUTER_BOUND ( 'NONE', #66, .T. ) ;
#68 = ORIENTED_EDGE ( 'NONE', *, *, #146, .T. ) ;
#69 = CIRCLE ( 'NONE', #29, 3.000000000000002665 ) ;
#70 = EDGE_LOOP ( 'NONE', ( #44 ) ) ;
#71 = EDGE_LOOP ( 'NONE', ( #245 ) ) ;
#72 = DIRECTION ( 'NONE',  ( 0.0000000000000000000, -1.000000000000000000, 0.0000000000000000000 ) ) ;
#73 = CC_DESIGN_PERSON_AND_ORGANIZATION_ASSIGNMENT ( #226, #183, ( #177 ) ) ;
#74 = FACE_OUTER_BOUND ( 'NONE', #320, .T. ) ;
#75 = DIRECTION ( 'NONE',  ( 3.491481338843133355E-15, -1.221293900448883903E-16, 1.000000000000000000 ) ) ;
#76 = AXIS2_PLACEMENT_3D ( 'NONE', #302, #75, #125 ) ;
#77 = ADVANCED_FACE ( 'NONE', ( #155 ), #206, .F. ) ;
#78 = DATE_TIME_ROLE ( 'classification_date' ) ;
#79 = FACE_OUTER_BOUND ( 'NONE', #321, .T. ) ;
#80 = PLANE ( 'NONE',  #83 ) ;
#81 = PERSON_AND_ORGANIZATION ( #212, #311 ) ;
#82 = FACE_OUTER_BOUND ( 'NONE', #71, .T. ) ;
#83 = AXIS2_PLACEMENT_3D ( 'NONE', #2, #98, #203 ) ;
#84 = ADVANCED_FACE ( 'NONE', ( #82, #27 ), #239, .F. ) ;
#85 = CARTESIAN_POINT ( 'NONE',  ( 4.443750813543088775E-14, -2.950000000000002398, 12.72740817516578637 ) ) ;
#86 = CLOSED_SHELL ( 'NONE', ( #240, #84, #99, #63, #88, #47, #17, #130, #163, #77 ) ) ;
#87 =( GEOMETRIC_REPRESENTATION_CONTEXT ( 3 ) GLOBAL_UNCERTAINTY_ASSIGNED_CONTEXT ( ( #110 ) ) GLOBAL_UNIT_ASSIGNED_CONTEXT ( ( #313, #309, #165 ) ) REPRESENTATION_CONTEXT ( 'NONE', 'WORKASPACE' ) );
#88 = ADVANCED_FACE ( 'NONE', ( #283, #79 ), #24, .T. ) ;
#89 = VERTEX_POINT ( 'NONE', #33 ) ;
#90 = VERTEX_POINT ( 'NONE', #37 ) ;
#91 = ORIENTED_EDGE ( 'NONE', *, *, #317, .T. ) ;
#92 = DIRECTION ( 'NONE',  ( -4.264124862660221187E-31, -1.000000000000000000, -1.221293900448883903E-16 ) ) ;
#93 = ORIENTED_EDGE ( 'NONE', *, *, #317, .F. ) ;
#94 = CIRCLE ( 'NONE', #76, 1.349999999999999867 ) ;
#95 = APPLICATION_PROTOCOL_DEFINITION ( 'international standard', 'config_control_design', 1994, #114 ) ;
#96 = CARTESIAN_POINT ( 'NONE',  ( 1.187103655206665341E-14, -4.336808689942017736E-16, 3.400000000000000355 ) ) ;
#97 = PERSON_AND_ORGANIZATION_ROLE ( 'classification_officer' ) ;
#98 = DIRECTION ( 'NONE',  ( -3.491481338843133355E-15, 1.221293900448883903E-16, -1.000000000000000000 ) ) ;
#99 = ADVANCED_FACE ( 'NONE', ( #250, #274 ), #254, .F. ) ;
#100 = DIRECTION ( 'NONE',  ( 0.0000000000000000000, 0.0000000000000000000, 1.000000000000000000 ) ) ;
#101 = PLANE ( 'NONE',  #172 ) ;
#102 = DIRECTION ( 'NONE',  ( 1.000000000000000000, 0.0000000000000000000, 0.0000000000000000000 ) ) ;
#103 = DIRECTION ( 'NONE',  ( 3.491481338843133355E-15, -1.221293900448883903E-16, 1.000000000000000000 ) ) ;
#104 = DIRECTION ( 'NONE',  ( -4.264124862660221187E-31, -1.000000000000000000, -1.221293900448883903E-16 ) ) ;
#105 = VERTEX_POINT ( 'NONE', #213 ) ;
#106 = CARTESIAN_POINT ( 'NONE',  ( 1.920314736363723472E-13, -6.735557395310442615E-15, 55.00000000000000000 ) ) ;
#107 = EDGE_CURVE ( 'NONE', #188, #188, #268, .T. ) ;
#108 = AXIS2_PLACEMENT_3D ( 'NONE', #131, #129, #49 ) ;
#109 = VERTEX_POINT ( 'NONE', #85 ) ;
#110 = UNCERTAINTY_MEASURE_WITH_UNIT (LENGTH_MEASURE( 1.000000000000000082E-05 ), #313, 'distance_accuracy_value', 'NONE');
#111 = DIRECTION ( 'NONE',  ( 3.491481338843133355E-15, -1.221293900448883903E-16, 1.000000000000000000 ) ) ;
#112 = DIRECTION ( 'NONE',  ( 3.491481338843133355E-15, -1.224646799147353207E-16, 1.000000000000000000 ) ) ;
#113 = ORIENTED_EDGE ( 'NONE', *, *, #294, .T. ) ;
#114 = APPLICATION_CONTEXT ( 'configuration controlled 3d designs of mechanical parts and assemblies' ) ;
#115 = EDGE_LOOP ( 'NONE', ( #68 ) ) ;
#116 = CC_DESIGN_PERSON_AND_ORGANIZATION_ASSIGNMENT ( #26, #152, ( #261 ) ) ;
#117 = ORIENTED_EDGE ( 'NONE', *, *, #159, .T. ) ;
#118 = CARTESIAN_POINT ( 'NONE',  ( -1.603473408473258309E-31, 5.624227617539895830E-33, -4.592530369944789138E-17 ) ) ;
#119 = CARTESIAN_POINT ( 'NONE',  ( 1.187103655206665183E-14, 5.999039130647423589E-33, 3.399999999999999911 ) ) ;
#120 = AXIS2_PLACEMENT_3D ( 'NONE', #187, #132, #136 ) ;
#121 = ORIENTED_EDGE ( 'NONE', *, *, #314, .F. ) ;
#122 = MECHANICAL_CONTEXT ( 'NONE', #218, 'mechanical' ) ;
#123 = DIRECTION ( 'NONE',  ( 3.491481338843133355E-15, -1.221293900448883903E-16, 1.000000000000000000 ) ) ;
#124 = CLOSED_SHELL ( 'NONE', ( #22, #181, #194 ) ) ;
#125 = DIRECTION ( 'NONE',  ( 0.0000000000000000000, -1.000000000000000000, 0.0000000000000000000 ) ) ;
#126 = CONICAL_SURFACE ( 'NONE', #205, 3.000000000000002220, 0.7853981633974450594 ) ;
#127 = APPROVAL_STATUS ( 'not_yet_approved' ) ;
#128 = CARTESIAN_POINT ( 'NONE',  ( 1.920314736363723472E-13, -2.400000000000009681, 55.00000000000000000 ) ) ;
#129 = DIRECTION ( 'NONE',  ( 3.491481338843133355E-15, -1.221293900448883903E-16, 1.000000000000000000 ) ) ;
#130 = ADVANCED_FACE ( 'NONE', ( #7, #259 ), #126, .T. ) ;
#131 = CARTESIAN_POINT ( 'NONE',  ( 1.920314736363723472E-13, -6.735557395310442615E-15, 55.00000000000000000 ) ) ;
#132 = DIRECTION ( 'NONE',  ( -3.491481338843133355E-15, 1.224646799147353207E-16, -1.000000000000000000 ) ) ;
#133 = CARTESIAN_POINT ( 'NONE',  ( 1.187103655206665341E-14, -0.8000000000000003775, 3.400000000000000355 ) ) ;
#134 = CARTESIAN_POINT ( 'NONE',  ( 1.899365848330664293E-13, -3.000000000000009326, 54.39999999999999858 ) ) ;
#135 = EDGE_CURVE ( 'NONE', #89, #89, #164, .T. ) ;
#136 = DIRECTION ( 'NONE',  ( 4.275831445896958607E-31, 1.000000000000000000, 1.224646799147353207E-16 ) ) ;
#137 = DIRECTION ( 'NONE',  ( 3.491481338843133355E-15, -1.224646799147353207E-16, 1.000000000000000000 ) ) ;
#138 = CC_DESIGN_APPROVAL ( #271, ( #6 ) ) ;
#139 = EDGE_CURVE ( 'NONE', #105, #105, #223, .T. ) ;
#140 = CARTESIAN_POINT ( 'NONE',  ( 1.920314736363723472E-13, -6.735557395310442615E-15, 55.00000000000000000 ) ) ;
#141 = EDGE_LOOP ( 'NONE', ( #113 ) ) ;
#142 = CARTESIAN_POINT ( 'NONE',  ( 4.443750813543088775E-14, -1.572831540126904329E-15, 12.72740817516578637 ) ) ;
#143 = AXIS2_PLACEMENT_3D ( 'NONE', #200, #100, #102 ) ;
#144 = EDGE_LOOP ( 'NONE', ( #171 ) ) ;
#145 = DIRECTION ( 'NONE',  ( 3.491481338843133355E-15, -1.221293900448883903E-16, 1.000000000000000000 ) ) ;
#146 = EDGE_CURVE ( 'NONE', #59, #59, #184, .T. ) ;
#147 = CALENDAR_DATE ( 2021, 13, 12 ) ;
#148 = AXIS2_PLACEMENT_3D ( 'NONE', #153, #149, #51 ) ;
#149 = DIRECTION ( 'NONE',  ( 3.491481338843133355E-15, -1.221293900448883903E-16, 1.000000000000000000 ) ) ;
#150 = APPROVAL_DATE_TIME ( #1, #11 ) ;
#151 = CYLINDRICAL_SURFACE ( 'NONE', #315, 0.7999999999999997113 ) ;
#152 = PERSON_AND_ORGANIZATION_ROLE ( 'design_owner' ) ;
#153 = CARTESIAN_POINT ( 'NONE',  ( 1.815570296198430607E-14, -6.535137710750009255E-16, 5.200000000000002842 ) ) ;
#154 = APPROVAL_DATE_TIME ( #301, #217 ) ;
#155 = FACE_OUTER_BOUND ( 'NONE', #265, .T. ) ;
#156 = LOCAL_TIME ( 11, 25, 58.00000000000000000, #48 ) ;
#157 = DIRECTION ( 'NONE',  ( 0.0000000000000000000, 1.000000000000000000, 0.0000000000000000000 ) ) ;
#158 = MANIFOLD_SOLID_BREP ( 'Corps-Déplacer/Copier4[2]', #124 ) ;
#159 = EDGE_CURVE ( 'NONE', #219, #219, #94, .T. ) ;
#160 = CARTESIAN_POINT ( 'NONE',  ( 1.899365848330664293E-13, -6.662279761283508940E-15, 54.39999999999999858 ) ) ;
#161 = CIRCLE ( 'NONE', #38, 2.400000000000003020 ) ;
#162 = CARTESIAN_POINT ( 'NONE',  ( 1.920314736363723472E-13, -6.735557395310442615E-15, 55.00000000000000000 ) ) ;
#163 = ADVANCED_FACE ( 'NONE', ( #74 ), #80, .F. ) ;
#164 = CIRCLE ( 'NONE', #148, 0.8404082057734578726 ) ;
#165 =( NAMED_UNIT ( * ) SI_UNIT ( $, .STERADIAN. ) SOLID_ANGLE_UNIT ( ) );
#166 = FACE_OUTER_BOUND ( 'NONE', #141, .T. ) ;
#167 = ORIENTED_EDGE ( 'NONE', *, *, #300, .T. ) ;
#168 = ORIENTED_EDGE ( 'NONE', *, *, #107, .F. ) ;
#169 = PRODUCT_RELATED_PRODUCT_CATEGORY ( 'detail', '', ( #261 ) ) ;
#170 = AXIS2_PLACEMENT_3D ( 'NONE', #266, #20, #92 ) ;
#171 = ORIENTED_EDGE ( 'NONE', *, *, #139, .F. ) ;
#172 = AXIS2_PLACEMENT_3D ( 'NONE', #119, #137, #215 ) ;
#173 = ORIENTED_EDGE ( 'NONE', *, *, #294, .F. ) ;
#174 = CARTESIAN_POINT ( 'NONE',  ( 1.675911042644703379E-14, -6.046620150570447805E-16, 4.799999999999998934 ) ) ;
#175 = PERSON_AND_ORGANIZATION ( #212, #311 ) ;
#176 = CARTESIAN_POINT ( 'NONE',  ( 1.675911042644703695E-14, -8.673617379884035472E-16, 4.799999999999999822 ) ) ;
#177 = PRODUCT_DEFINITION_FORMATION_WITH_SPECIFIED_SOURCE ( 'ANY', '', #261, .NOT_KNOWN. ) ;
#178 = FACE_OUTER_BOUND ( 'NONE', #197, .T. ) ;
#179 = APPROVAL_ROLE ( '' ) ;
#180 = CARTESIAN_POINT ( 'NONE',  ( 1.899365848330664293E-13, -6.662279761283508940E-15, 54.39999999999999858 ) ) ;
#181 = ADVANCED_FACE ( 'NONE', ( #178, #277 ), #151, .T. ) ;
#182 = FACE_OUTER_BOUND ( 'NONE', #291, .T. ) ;
#183 = PERSON_AND_ORGANIZATION_ROLE ( 'design_supplier' ) ;
#184 = CIRCLE ( 'NONE', #214, 0.7999999999999999334 ) ;
#185 = FACE_OUTER_BOUND ( 'NONE', #115, .T. ) ;
#186 = CC_DESIGN_PERSON_AND_ORGANIZATION_ASSIGNMENT ( #224, #97, ( #244 ) ) ;
#187 = CARTESIAN_POINT ( 'NONE',  ( -3.206946816946516619E-31, 1.124845523507979166E-32, -9.185060739889578275E-17 ) ) ;
#188 = VERTEX_POINT ( 'NONE', #285 ) ;
#189 = AXIS2_PLACEMENT_3D ( 'NONE', #140, #111, #72 ) ;
#190 = VERTEX_POINT ( 'NONE', #134 ) ;
#191 = EDGE_LOOP ( 'NONE', ( #91 ) ) ;
#192 = CC_DESIGN_APPROVAL ( #217, ( #177 ) ) ;
#193 = DIRECTION ( 'NONE',  ( 3.491481338843133355E-15, -1.221293900448883903E-16, 1.000000000000000000 ) ) ;
#194 = ADVANCED_FACE ( 'NONE', ( #182 ), #101, .T. ) ;
#195 = FACE_OUTER_BOUND ( 'NONE', #322, .T. ) ;
#196 = EDGE_LOOP ( 'NONE', ( #242 ) ) ;
#197 = EDGE_LOOP ( 'NONE', ( #173 ) ) ;
#198 = CC_DESIGN_APPROVAL ( #11, ( #244 ) ) ;
#199 = ORIENTED_EDGE ( 'NONE', *, *, #135, .T. ) ;
#200 = CARTESIAN_POINT ( 'NONE',  ( 0.0000000000000000000, 0.0000000000000000000, 0.0000000000000000000 ) ) ;
#201 = CARTESIAN_POINT ( 'NONE',  ( 5.411796075206856701E-14, -1.911446488537351074E-15, 15.50000000000000000 ) ) ;
#202 = PERSON_AND_ORGANIZATION_ROLE ( 'creator' ) ;
#203 = DIRECTION ( 'NONE',  ( 4.264124862660221187E-31, 1.000000000000000000, 1.221293900448883903E-16 ) ) ;
#204 = CALENDAR_DATE ( 2021, 13, 12 ) ;
#205 = AXIS2_PLACEMENT_3D ( 'NONE', #180, #228, #54 ) ;
#206 = PLANE ( 'NONE',  #216 ) ;
#207 = PERSON_AND_ORGANIZATION_ROLE ( 'creator' ) ;
#208 = CARTESIAN_POINT ( 'NONE',  ( 1.187103655206665183E-14, -4.163799117101000559E-16, 3.399999999999999911 ) ) ;
#209 = PERSON_AND_ORGANIZATION ( #212, #311 ) ;
#210 = PRODUCT_DEFINITION_SHAPE ( 'NONE', 'NONE',  #6 ) ;
#211 = DIRECTION ( 'NONE',  ( -3.491481338843133355E-15, 1.224646799147353207E-16, -1.000000000000000000 ) ) ;
#212 = PERSON ( 'UNSPECIFIED', 'UNSPECIFIED', 'UNSPECIFIED', ('UNSPECIFIED'), ('UNSPECIFIED'), ('UNSPECIFIED') ) ;
#213 = CARTESIAN_POINT ( 'NONE',  ( 5.411796075206856701E-14, -2.950000000000002842, 15.50000000000000000 ) ) ;
#214 = AXIS2_PLACEMENT_3D ( 'NONE', #96, #299, #30 ) ;
#215 = DIRECTION ( 'NONE',  ( -4.275831445896958607E-31, -1.000000000000000000, -1.224646799147353207E-16 ) ) ;
#216 = AXIS2_PLACEMENT_3D ( 'NONE', #58, #310, #281 ) ;
#217 = APPROVAL ( #276, 'UNSPECIFIED' ) ;
#218 = APPLICATION_CONTEXT ( 'configuration controlled 3d designs of mechanical parts and assemblies' ) ;
#219 = VERTEX_POINT ( 'NONE', #288 ) ;
#220 = ORIENTED_EDGE ( 'NONE', *, *, #300, .F. ) ;
#221 = APPROVAL_PERSON_ORGANIZATION ( #230, #217, #308 ) ;
#222 = EDGE_LOOP ( 'NONE', ( #292 ) ) ;
#223 = CIRCLE ( 'NONE', #319, 2.950000000000001066 ) ;
#224 = PERSON_AND_ORGANIZATION ( #212, #311 ) ;
#225 = EDGE_LOOP ( 'NONE', ( #289 ) ) ;
#226 = PERSON_AND_ORGANIZATION ( #212, #311 ) ;
#227 = DATE_AND_TIME ( #249, #61 ) ;
#228 = DIRECTION ( 'NONE',  ( -3.491481338843133355E-15, 1.221293900448883903E-16, -1.000000000000000000 ) ) ;
#229 = CIRCLE ( 'NONE', #318, 2.950000000000000622 ) ;
#230 = PERSON_AND_ORGANIZATION ( #212, #311 ) ;
#231 = AXIS2_PLACEMENT_3D ( 'NONE', #106, #260, #262 ) ;
#232 = DIRECTION ( 'NONE',  ( 3.491481338843133355E-15, -1.221293900448883903E-16, 1.000000000000000000 ) ) ;
#233 = COORDINATED_UNIVERSAL_TIME_OFFSET ( 1, 0, .AHEAD. ) ;
#234 = VERTEX_POINT ( 'NONE', #12 ) ;
#235 = CARTESIAN_POINT ( 'NONE',  ( 1.815570296198429345E-14, 0.8404082057734572064, 5.200000000000000178 ) ) ;
#236 = MANIFOLD_SOLID_BREP ( 'Corps-Déplacer/Copier4[1]', #86 ) ;
#237 = CC_DESIGN_PERSON_AND_ORGANIZATION_ASSIGNMENT ( #81, #207, ( #177 ) ) ;
#238 = DIRECTION ( 'NONE',  ( 0.0000000000000000000, -1.000000000000000000, 0.0000000000000000000 ) ) ;
#239 = TOROIDAL_SURFACE ( 'NONE', #323, 2.800000000000000266, 2.000000000000000000 ) ;
#240 = ADVANCED_FACE ( 'NONE', ( #36, #185 ), #316, .T. ) ;
#241 = EDGE_LOOP ( 'NONE', ( #297 ) ) ;
#242 = ORIENTED_EDGE ( 'NONE', *, *, #159, .F. ) ;
#243 = LOCAL_TIME ( 11, 25, 58.00000000000000000, #255 ) ;
#244 = SECURITY_CLASSIFICATION ( '', '', #32 ) ;
#245 = ORIENTED_EDGE ( 'NONE', *, *, #135, .F. ) ;
#246 = EDGE_LOOP ( 'NONE', ( #121 ) ) ;
#247 = FACE_BOUND ( 'NONE', #241, .T. ) ;
#248 = APPROVAL_PERSON_ORGANIZATION ( #278, #11, #179 ) ;
#249 = CALENDAR_DATE ( 2021, 13, 12 ) ;
#250 = FACE_OUTER_BOUND ( 'NONE', #196, .T. ) ;
#251 = CALENDAR_DATE ( 2021, 13, 12 ) ;
#252 = CARTESIAN_POINT ( 'NONE',  ( 0.0000000000000000000, 0.0000000000000000000, 0.0000000000000000000 ) ) ;
#253 = APPROVAL_DATE_TIME ( #273, #271 ) ;
#254 = PLANE ( 'NONE',  #5 ) ;
#255 = COORDINATED_UNIVERSAL_TIME_OFFSET ( 1, 0, .AHEAD. ) ;
#256 = CIRCLE ( 'NONE', #120, 0.7999999999999994893 ) ;
#257 = DIRECTION ( 'NONE',  ( 0.0000000000000000000, -1.000000000000000000, 0.0000000000000000000 ) ) ;
#258 = APPROVAL_ROLE ( '' ) ;
#259 = FACE_OUTER_BOUND ( 'NONE', #191, .T. ) ;
#260 = DIRECTION ( 'NONE',  ( 3.491481338843133355E-15, -1.221293900448883903E-16, 1.000000000000000000 ) ) ;
#261 = PRODUCT ( '388810', '388810', '', ( #122 ) ) ;
#262 = DIRECTION ( 'NONE',  ( 0.0000000000000000000, -1.000000000000000000, 0.0000000000000000000 ) ) ;
#263 = AXIS2_PLACEMENT_3D ( 'NONE', #118, #112, #46 ) ;
#264 = CIRCLE ( 'NONE', #295, 2.999999999999997780 ) ;
#265 = EDGE_LOOP ( 'NONE', ( #269 ) ) ;
#266 = CARTESIAN_POINT ( 'NONE',  ( 5.411796075206856701E-14, 2.999999999999995559, 15.50000000000000000 ) ) ;
#267 = DIRECTION ( 'NONE',  ( 0.0000000000000000000, -1.000000000000000000, 0.0000000000000000000 ) ) ;
#268 = CIRCLE ( 'NONE', #55, 0.7999999999999999334 ) ;
#269 = ORIENTED_EDGE ( 'NONE', *, *, #146, .F. ) ;
#270 = ORIENTED_EDGE ( 'NONE', *, *, #40, .F. ) ;
#271 = APPROVAL ( #127, 'UNSPECIFIED' ) ;
#272 = ORIENTED_EDGE ( 'NONE', *, *, #107, .T. ) ;
#273 = DATE_AND_TIME ( #204, #243 ) ;
#274 = FACE_BOUND ( 'NONE', #296, .T. ) ;
#275 = AXIS2_PLACEMENT_3D ( 'NONE', #174, #145, #45 ) ;
#276 = APPROVAL_STATUS ( 'not_yet_approved' ) ;
#277 = FACE_OUTER_BOUND ( 'NONE', #15, .T. ) ;
#278 = PERSON_AND_ORGANIZATION ( #212, #311 ) ;
#279 = CARTESIAN_POINT ( 'NONE',  ( 1.815570296198430607E-14, -6.535137710750009255E-16, 5.200000000000002842 ) ) ;
#280 = VERTEX_POINT ( 'NONE', #128 ) ;
#281 = DIRECTION ( 'NONE',  ( -4.264124862660221187E-31, -1.000000000000000000, -1.221293900448883903E-16 ) ) ;
#282 = DIRECTION ( 'NONE',  ( 3.491481338843133355E-15, -1.221293900448883903E-16, 1.000000000000000000 ) ) ;
#283 = FACE_OUTER_BOUND ( 'NONE', #144, .T. ) ;
#284 = DIRECTION ( 'NONE',  ( 0.0000000000000000000, -1.000000000000000000, 0.0000000000000000000 ) ) ;
#285 = CARTESIAN_POINT ( 'NONE',  ( 1.187103655206665183E-14, 0.7999999999999994893, 3.399999999999999911 ) ) ;
#286 = CC_DESIGN_DATE_AND_TIME_ASSIGNMENT ( #56, #304, ( #6 ) ) ;
#287 = CIRCLE ( 'NONE', #275, 0.8000000000000000444 ) ;
#288 = CARTESIAN_POINT ( 'NONE',  ( 1.815570296198430607E-14, -1.350000000000000533, 5.200000000000002842 ) ) ;
#289 = ORIENTED_EDGE ( 'NONE', *, *, #34, .T. ) ;
#290 = DESIGN_CONTEXT ( 'detailed design', #114, 'design' ) ;
#291 = EDGE_LOOP ( 'NONE', ( #168 ) ) ;
#292 = ORIENTED_EDGE ( 'NONE', *, *, #34, .F. ) ;
#293 = FACE_BOUND ( 'NONE', #39, .T. ) ;
#294 = EDGE_CURVE ( 'NONE', #90, #90, #256, .T. ) ;
#295 = AXIS2_PLACEMENT_3D ( 'NONE', #8, #9, #284 ) ;
#296 = EDGE_LOOP ( 'NONE', ( #199 ) ) ;
#297 = ORIENTED_EDGE ( 'NONE', *, *, #139, .T. ) ;
#298 = APPROVAL_STATUS ( 'not_yet_approved' ) ;
#299 = DIRECTION ( 'NONE',  ( 3.491481338843133355E-15, -1.221293900448883903E-16, 1.000000000000000000 ) ) ;
#300 = EDGE_CURVE ( 'NONE', #280, #280, #161, .T. ) ;
#301 = DATE_AND_TIME ( #147, #21 ) ;
#302 = CARTESIAN_POINT ( 'NONE',  ( 1.815570296198430607E-14, -6.535137710750009255E-16, 5.200000000000002842 ) ) ;
#303 = AXIS2_PLACEMENT_3D ( 'NONE', #279, #103, #307 ) ;
#304 = DATE_TIME_ROLE ( 'creation_date' ) ;
#305 = DIRECTION ( 'NONE',  ( -4.374771922673803864E-31, -1.000000000000000000, -1.221293900448883903E-16 ) ) ;
#306 = CALENDAR_DATE ( 2021, 13, 12 ) ;
#307 = DIRECTION ( 'NONE',  ( 0.0000000000000000000, -1.000000000000000000, 0.0000000000000000000 ) ) ;
#308 = APPROVAL_ROLE ( '' ) ;
#309 =( NAMED_UNIT ( * ) PLANE_ANGLE_UNIT ( ) SI_UNIT ( $, .RADIAN. ) );
#310 = DIRECTION ( 'NONE',  ( 3.491481338843133355E-15, -1.221293900448883903E-16, 1.000000000000000000 ) ) ;
#311 = ORGANIZATION ( 'UNSPECIFIED', 'UNSPECIFIED', '' ) ;
#312 = CARTESIAN_POINT ( 'NONE',  ( 1.675911042644703379E-14, -0.8000000000000007105, 4.799999999999998934 ) ) ;
#313 =( LENGTH_UNIT ( ) NAMED_UNIT ( * ) SI_UNIT ( .MILLI., .METRE. ) );
#314 = EDGE_CURVE ( 'NONE', #234, #234, #264, .T. ) ;
#315 = AXIS2_PLACEMENT_3D ( 'NONE', #252, #211, #4 ) ;
#316 = CYLINDRICAL_SURFACE ( 'NONE', #231, 0.8000000000000000444 ) ;
#317 = EDGE_CURVE ( 'NONE', #190, #190, #69, .T. ) ;
#318 = AXIS2_PLACEMENT_3D ( 'NONE', #142, #193, #267 ) ;
#319 = AXIS2_PLACEMENT_3D ( 'NONE', #201, #123, #257 ) ;
#320 = EDGE_LOOP ( 'NONE', ( #167 ) ) ;
#321 = EDGE_LOOP ( 'NONE', ( #42 ) ) ;
#322 = EDGE_LOOP ( 'NONE', ( #270 ) ) ;
#323 = AXIS2_PLACEMENT_3D ( 'NONE', #176, #25, #305 ) ;
ENDSEC;
END-ISO-10303-21;
