ISO-10303-21;
HEADER;
FILE_DESCRIPTION (( 'STEP AP203' ),
    '1' );
FILE_NAME ('388809.step',
    '2021-12-13T10:25:57',
    ( '' ),
    ( '' ),
    'SwSTEP 2.0',
    'SolidWorks 2019',
    '' );
FILE_SCHEMA (( 'CONFIG_CONTROL_DESIGN' ));
ENDSEC;

DATA;
#1 = VERTEX_POINT ( 'NONE', #103 ) ;
#2 = EDGE_CURVE ( 'NONE', #100, #100, #136, .T. ) ;
#3 = CARTESIAN_POINT ( 'NONE',  ( 1.117274028429802674E-14, -3.918869757271530460E-16, 3.200000000000000178 ) ) ;
#4 = DIRECTION ( 'NONE',  ( -4.275831445896958607E-31, -1.000000000000000000, -1.224646799147353207E-16 ) ) ;
#5 =( NAMED_UNIT ( * ) PLANE_ANGLE_UNIT ( ) SI_UNIT ( $, .RADIAN. ) );
#6 = APPROVAL_PERSON_ORGANIZATION ( #44, #39, #143 ) ;
#7 = APPROVAL_DATE_TIME ( #84, #39 ) ;
#8 = FACE_BOUND ( 'NONE', #206, .T. ) ;
#9 = DATE_TIME_ROLE ( 'classification_date' ) ;
#10 = CARTESIAN_POINT ( 'NONE',  ( 1.117274028429802674E-14, 0.7499999999999994449, 3.200000000000000178 ) ) ;
#11 = CIRCLE ( 'NONE', #48, 1.959999999999999964 ) ;
#12 = CARTESIAN_POINT ( 'NONE',  ( 3.456566525454702022E-14, 1.999999999999995337, 9.900000000000000355 ) ) ;
#13 = FACE_OUTER_BOUND ( 'NONE', #273, .T. ) ;
#14 = CARTESIAN_POINT ( 'NONE',  ( 1.312796983405018142E-13, -4.605152354371830719E-15, 37.60000000000000142 ) ) ;
#15 = CYLINDRICAL_SURFACE ( 'NONE', #138, 1.999999999999997335 ) ;
#16 = CARTESIAN_POINT ( 'NONE',  ( 1.117274028429802674E-14, 5.624099184981958503E-33, 3.200000000000000178 ) ) ;
#17 = EDGE_CURVE ( 'NONE', #99, #99, #75, .T. ) ;
#18 = COORDINATED_UNIVERSAL_TIME_OFFSET ( 1, 0, .AHEAD. ) ;
#19 = PLANE ( 'NONE',  #158 ) ;
#20 = CARTESIAN_POINT ( 'NONE',  ( 3.456566525454702022E-14, 1.959999999999998632, 9.900000000000000355 ) ) ;
#21 = FACE_OUTER_BOUND ( 'NONE', #113, .T. ) ;
#22 = ORIENTED_EDGE ( 'NONE', *, *, #45, .T. ) ;
#23 = AXIS2_PLACEMENT_3D ( 'NONE', #167, #123, #258 ) ;
#24 = ORIENTED_EDGE ( 'NONE', *, *, #2, .T. ) ;
#25 = VERTEX_POINT ( 'NONE', #171 ) ;
#26 = EDGE_LOOP ( 'NONE', ( #173 ) ) ;
#27 = VERTEX_POINT ( 'NONE', #20 ) ;
#28 = EDGE_LOOP ( 'NONE', ( #271 ) ) ;
#29 = ADVANCED_FACE ( 'NONE', ( #64, #8 ), #67, .T. ) ;
#30 = CALENDAR_DATE ( 2021, 13, 12 ) ;
#31 = CIRCLE ( 'NONE', #228, 1.149999999999999911 ) ;
#32 = EDGE_LOOP ( 'NONE', ( #247 ) ) ;
#33 = ADVANCED_FACE ( 'NONE', ( #37, #133 ), #234, .T. ) ;
#34 = DIRECTION ( 'NONE',  ( -3.491481338843133355E-15, 1.212637059702799026E-16, -1.000000000000000000 ) ) ;
#35 = CLOSED_SHELL ( 'NONE', ( #29, #166, #135, #33, #204, #162, #215, #78, #155 ) ) ;
#36 = CIRCLE ( 'NONE', #85, 1.999999999999996669 ) ;
#37 = FACE_OUTER_BOUND ( 'NONE', #282, .T. ) ;
#38 = CARTESIAN_POINT ( 'NONE',  ( 1.312796983405018142E-13, -4.605152354371830719E-15, 37.60000000000000142 ) ) ;
#39 = APPROVAL ( #46, 'UNSPECIFIED' ) ;
#40 = DIRECTION ( 'NONE',  ( 3.491481338843133355E-15, -1.224646799147353207E-16, 1.000000000000000000 ) ) ;
#41 = MECHANICAL_CONTEXT ( 'NONE', #188, 'mechanical' ) ;
#42 = CC_DESIGN_APPROVAL ( #177, ( #235 ) ) ;
#43 = DIRECTION ( 'NONE',  ( -3.491481338843133355E-15, 1.212637059702799026E-16, -1.000000000000000000 ) ) ;
#44 = PERSON_AND_ORGANIZATION ( #76, #196 ) ;
#45 = EDGE_CURVE ( 'NONE', #27, #27, #11, .T. ) ;
#46 = APPROVAL_STATUS ( 'not_yet_approved' ) ;
#47 = PERSON_AND_ORGANIZATION_ROLE ( 'design_owner' ) ;
#48 = AXIS2_PLACEMENT_3D ( 'NONE', #86, #253, #296 ) ;
#49 = CC_DESIGN_SECURITY_CLASSIFICATION ( #159, ( #147 ) ) ;
#50 = MANIFOLD_SOLID_BREP ( 'Corps-Déplacer/Copier3[1]', #35 ) ;
#51 = VERTEX_POINT ( 'NONE', #150 ) ;
#52 = CC_DESIGN_DATE_AND_TIME_ASSIGNMENT ( #294, #9, ( #159 ) ) ;
#53 = VERTEX_POINT ( 'NONE', #241 ) ;
#54 = VERTEX_POINT ( 'NONE', #124 ) ;
#55 =( NAMED_UNIT ( * ) SI_UNIT ( $, .STERADIAN. ) SOLID_ANGLE_UNIT ( ) );
#56 = ORIENTED_EDGE ( 'NONE', *, *, #45, .F. ) ;
#57 = COORDINATED_UNIVERSAL_TIME_OFFSET ( 1, 0, .AHEAD. ) ;
#58 = DATE_AND_TIME ( #30, #95 ) ;
#59 = AXIS2_PLACEMENT_3D ( 'NONE', #93, #125, #255 ) ;
#60 = ORIENTED_EDGE ( 'NONE', *, *, #252, .F. ) ;
#61 = APPROVAL ( #183, 'UNSPECIFIED' ) ;
#62 = DIRECTION ( 'NONE',  ( 0.0000000000000000000, 1.000000000000000000, 0.0000000000000000000 ) ) ;
#63 = SHAPE_DEFINITION_REPRESENTATION ( #141, #110 ) ;
#64 = FACE_OUTER_BOUND ( 'NONE', #226, .T. ) ;
#65 = AXIS2_PLACEMENT_3D ( 'NONE', #90, #116, #299 ) ;
#66 = LOCAL_TIME ( 11, 25, 57.00000000000000000, #198 ) ;
#67 = PLANE ( 'NONE',  #251 ) ;
#68 = CYLINDRICAL_SURFACE ( 'NONE', #163, 0.7500000000000000000 ) ;
#69 = CIRCLE ( 'NONE', #23, 0.7500000000000000000 ) ;
#70 = DATE_TIME_ROLE ( 'creation_date' ) ;
#71 = EDGE_CURVE ( 'NONE', #25, #25, #31, .T. ) ;
#72 = FACE_BOUND ( 'NONE', #179, .T. ) ;
#73 = DIRECTION ( 'NONE',  ( 0.0000000000000000000, 1.000000000000000000, 0.0000000000000000000 ) ) ;
#74 = FACE_OUTER_BOUND ( 'NONE', #227, .T. ) ;
#75 = CIRCLE ( 'NONE', #216, 1.999999999999997780 ) ;
#76 = PERSON ( 'UNSPECIFIED', 'UNSPECIFIED', 'UNSPECIFIED', ('UNSPECIFIED'), ('UNSPECIFIED'), ('UNSPECIFIED') ) ;
#77 = CARTESIAN_POINT ( 'NONE',  ( 1.571166602479410010E-14, 0.7499999999999994449, 4.500000000000000000 ) ) ;
#78 = ADVANCED_FACE ( 'NONE', ( #249 ), #232, .T. ) ;
#79 = LOCAL_TIME ( 11, 25, 57.00000000000000000, #87 ) ;
#80 = CARTESIAN_POINT ( 'NONE',  ( 1.326762908760390423E-13, -4.653657836759941941E-15, 38.00000000000000000 ) ) ;
#81 = ORIENTED_EDGE ( 'NONE', *, *, #189, .T. ) ;
#82 = APPROVAL_DATE_TIME ( #58, #61 ) ;
#83 = DIRECTION ( 'NONE',  ( -3.491481338843133355E-15, 1.224646799147353207E-16, -1.000000000000000000 ) ) ;
#84 = DATE_AND_TIME ( #109, #281 ) ;
#85 = AXIS2_PLACEMENT_3D ( 'NONE', #203, #220, #223 ) ;
#86 = CARTESIAN_POINT ( 'NONE',  ( 3.456566525454702022E-14, -1.246147698995077355E-15, 9.900000000000000355 ) ) ;
#87 = COORDINATED_UNIVERSAL_TIME_OFFSET ( 1, 0, .AHEAD. ) ;
#88 = ADVANCED_FACE ( 'NONE', ( #94, #13 ), #236, .T. ) ;
#89 = CARTESIAN_POINT ( 'NONE',  ( 1.571166602479410010E-14, -5.913236867555655114E-16, 4.500000000000000000 ) ) ;
#90 = CARTESIAN_POINT ( 'NONE',  ( 0.0000000000000000000, 0.0000000000000000000, 0.0000000000000000000 ) ) ;
#91 = PERSON_AND_ORGANIZATION ( #76, #196 ) ;
#92 = CARTESIAN_POINT ( 'NONE',  ( 1.571166602479410010E-14, -5.913236867555655114E-16, 4.500000000000000000 ) ) ;
#93 = CARTESIAN_POINT ( 'NONE',  ( 0.0000000000000000000, 0.0000000000000000000, 0.0000000000000000000 ) ) ;
#94 = FACE_OUTER_BOUND ( 'NONE', #105, .T. ) ;
#95 = LOCAL_TIME ( 11, 25, 57.00000000000000000, #57 ) ;
#96 = CC_DESIGN_DATE_AND_TIME_ASSIGNMENT ( #263, #70, ( #235 ) ) ;
#97 = ORIENTED_EDGE ( 'NONE', *, *, #252, .T. ) ;
#98 = CC_DESIGN_APPROVAL ( #61, ( #159 ) ) ;
#99 = VERTEX_POINT ( 'NONE', #104 ) ;
#100 = VERTEX_POINT ( 'NONE', #246 ) ;
#101 = DESIGN_CONTEXT ( 'detailed design', #140, 'design' ) ;
#102 = ORIENTED_EDGE ( 'NONE', *, *, #114, .T. ) ;
#103 = CARTESIAN_POINT ( 'NONE',  ( 1.117274028429802674E-14, 0.7499999999999994449, 3.200000000000000178 ) ) ;
#104 = CARTESIAN_POINT ( 'NONE',  ( 1.312796983405018142E-13, 1.999999999999993117, 37.60000000000000142 ) ) ;
#105 = EDGE_LOOP ( 'NONE', ( #284 ) ) ;
#106 = SECURITY_CLASSIFICATION_LEVEL ( 'unclassified' ) ;
#107 = CALENDAR_DATE ( 2021, 13, 12 ) ;
#108 = DIRECTION ( 'NONE',  ( 4.233899664741929704E-31, 1.000000000000000000, 1.212637059702799026E-16 ) ) ;
#109 = CALENDAR_DATE ( 2021, 13, 12 ) ;
#110 = ADVANCED_BREP_SHAPE_REPRESENTATION ( '388809', ( #50, #149, #59 ), #122 ) ;
#111 = DIRECTION ( 'NONE',  ( -3.491481338843133355E-15, 1.212637059702799026E-16, -1.000000000000000000 ) ) ;
#112 = APPROVAL_ROLE ( '' ) ;
#113 = EDGE_LOOP ( 'NONE', ( #153 ) ) ;
#114 = EDGE_CURVE ( 'NONE', #201, #201, #121, .T. ) ;
#115 = EDGE_LOOP ( 'NONE', ( #24 ) ) ;
#116 = DIRECTION ( 'NONE',  ( -3.491481338843133355E-15, 1.224646799147353207E-16, -1.000000000000000000 ) ) ;
#117 = ADVANCED_FACE ( 'NONE', ( #239 ), #19, .T. ) ;
#118 = DIRECTION ( 'NONE',  ( 0.0000000000000000000, 1.000000000000000000, 0.0000000000000000000 ) ) ;
#119 = CARTESIAN_POINT ( 'NONE',  ( 1.117274028429802674E-14, -4.336808689942017736E-16, 3.200000000000000178 ) ) ;
#120 = CYLINDRICAL_SURFACE ( 'NONE', #292, 1.959999999999999964 ) ;
#121 = CIRCLE ( 'NONE', #127, 1.959999999999999520 ) ;
#122 =( GEOMETRIC_REPRESENTATION_CONTEXT ( 3 ) GLOBAL_UNCERTAINTY_ASSIGNED_CONTEXT ( ( #265 ) ) GLOBAL_UNIT_ASSIGNED_CONTEXT ( ( #172, #5, #55 ) ) REPRESENTATION_CONTEXT ( 'NONE', 'WORKASPACE' ) );
#123 = DIRECTION ( 'NONE',  ( -3.491481338843133355E-15, 1.212637059702799026E-16, -1.000000000000000000 ) ) ;
#124 = CARTESIAN_POINT ( 'NONE',  ( 3.456566525454702022E-14, 1.999999999999995337, 9.900000000000000355 ) ) ;
#125 = DIRECTION ( 'NONE',  ( 0.0000000000000000000, 0.0000000000000000000, 1.000000000000000000 ) ) ;
#126 = DIRECTION ( 'NONE',  ( -4.233899664741929704E-31, -1.000000000000000000, -1.212637059702799026E-16 ) ) ;
#127 = AXIS2_PLACEMENT_3D ( 'NONE', #279, #257, #190 ) ;
#128 = PLANE ( 'NONE',  #243 ) ;
#129 = DIRECTION ( 'NONE',  ( 0.0000000000000000000, 1.000000000000000000, 0.0000000000000000000 ) ) ;
#130 = AXIS2_PLACEMENT_3D ( 'NONE', #14, #43, #118 ) ;
#131 = CC_DESIGN_PERSON_AND_ORGANIZATION_ASSIGNMENT ( #157, #248, ( #147 ) ) ;
#132 = CARTESIAN_POINT ( 'NONE',  ( 1.117274028429802674E-14, -4.336808689942017736E-16, 3.200000000000000178 ) ) ;
#133 = FACE_BOUND ( 'NONE', #207, .T. ) ;
#134 = EDGE_LOOP ( 'NONE', ( #102 ) ) ;
#135 = ADVANCED_FACE ( 'NONE', ( #74, #274 ), #120, .T. ) ;
#136 = CIRCLE ( 'NONE', #154, 0.7499999999999998890 ) ;
#137 = FACE_OUTER_BOUND ( 'NONE', #244, .T. ) ;
#138 = AXIS2_PLACEMENT_3D ( 'NONE', #119, #300, #142 ) ;
#139 = FACE_OUTER_BOUND ( 'NONE', #32, .T. ) ;
#140 = APPLICATION_CONTEXT ( 'configuration controlled 3d designs of mechanical parts and assemblies' ) ;
#141 = PRODUCT_DEFINITION_SHAPE ( 'NONE', 'NONE',  #235 ) ;
#142 = DIRECTION ( 'NONE',  ( 7.703719777548953922E-31, 1.000000000000000000, 2.168404344971011826E-16 ) ) ;
#143 = APPROVAL_ROLE ( '' ) ;
#144 = DIRECTION ( 'NONE',  ( 3.491481338843133355E-15, -1.212637059702799026E-16, 1.000000000000000000 ) ) ;
#145 = AXIS2_PLACEMENT_3D ( 'NONE', #12, #160, #108 ) ;
#146 = APPROVAL_STATUS ( 'not_yet_approved' ) ;
#147 = PRODUCT_DEFINITION_FORMATION_WITH_SPECIFIED_SOURCE ( 'ANY', '', #238, .NOT_KNOWN. ) ;
#148 = PLANE ( 'NONE',  #256 ) ;
#149 = MANIFOLD_SOLID_BREP ( 'Corps-Déplacer/Copier3[2]', #287 ) ;
#150 = CARTESIAN_POINT ( 'NONE',  ( 2.137183397710474803E-32, 0.7499999999999994449, 6.121136532892404794E-18 ) ) ;
#151 = PRODUCT_RELATED_PRODUCT_CATEGORY ( 'detail', '', ( #238 ) ) ;
#152 = DIRECTION ( 'NONE',  ( -3.491481338843133355E-15, 1.212637059702799026E-16, -1.000000000000000000 ) ) ;
#153 = ORIENTED_EDGE ( 'NONE', *, *, #245, .F. ) ;
#154 = AXIS2_PLACEMENT_3D ( 'NONE', #132, #291, #233 ) ;
#155 = ADVANCED_FACE ( 'NONE', ( #302, #137 ), #68, .T. ) ;
#156 = ORIENTED_EDGE ( 'NONE', *, *, #71, .T. ) ;
#157 = PERSON_AND_ORGANIZATION ( #76, #196 ) ;
#158 = AXIS2_PLACEMENT_3D ( 'NONE', #16, #40, #217 ) ;
#159 = SECURITY_CLASSIFICATION ( '', '', #106 ) ;
#160 = DIRECTION ( 'NONE',  ( -3.491481338843133355E-15, 1.212637059702799026E-16, -1.000000000000000000 ) ) ;
#161 = ORIENTED_EDGE ( 'NONE', *, *, #245, .T. ) ;
#162 = ADVANCED_FACE ( 'NONE', ( #72, #298 ), #261, .T. ) ;
#163 = AXIS2_PLACEMENT_3D ( 'NONE', #195, #165, #73 ) ;
#164 = DIRECTION ( 'NONE',  ( -3.491481338843133355E-15, 1.224646799147353207E-16, -1.000000000000000000 ) ) ;
#165 = DIRECTION ( 'NONE',  ( -3.491481338843133355E-15, 1.212637059702799026E-16, -1.000000000000000000 ) ) ;
#166 = ADVANCED_FACE ( 'NONE', ( #212, #260 ), #209, .T. ) ;
#167 = CARTESIAN_POINT ( 'NONE',  ( 1.571166602479410010E-14, -5.913236867555655114E-16, 4.500000000000000000 ) ) ;
#168 = COORDINATED_UNIVERSAL_TIME_OFFSET ( 1, 0, .AHEAD. ) ;
#169 = CARTESIAN_POINT ( 'NONE',  ( -1.496577622325834519E-31, 5.249287671874432113E-33, -4.286368670157951514E-17 ) ) ;
#170 = EDGE_CURVE ( 'NONE', #178, #178, #69, .T. ) ;
#171 = CARTESIAN_POINT ( 'NONE',  ( 1.571166602479410010E-14, 1.149999999999999245, 4.500000000000000000 ) ) ;
#172 =( LENGTH_UNIT ( ) NAMED_UNIT ( * ) SI_UNIT ( .MILLI., .METRE. ) );
#173 = ORIENTED_EDGE ( 'NONE', *, *, #17, .F. ) ;
#174 = APPLICATION_PROTOCOL_DEFINITION ( 'international standard', 'config_control_design', 1994, #188 ) ;
#175 = EDGE_LOOP ( 'NONE', ( #184 ) ) ;
#176 = PERSON_AND_ORGANIZATION_ROLE ( 'creator' ) ;
#177 = APPROVAL ( #146, 'UNSPECIFIED' ) ;
#178 = VERTEX_POINT ( 'NONE', #77 ) ;
#179 = EDGE_LOOP ( 'NONE', ( #161 ) ) ;
#180 = PERSON_AND_ORGANIZATION_ROLE ( 'classification_officer' ) ;
#181 = PERSON_AND_ORGANIZATION ( #76, #196 ) ;
#182 = CIRCLE ( 'NONE', #199, 0.7499999999999998890 ) ;
#183 = APPROVAL_STATUS ( 'not_yet_approved' ) ;
#184 = ORIENTED_EDGE ( 'NONE', *, *, #71, .F. ) ;
#185 = EDGE_LOOP ( 'NONE', ( #286 ) ) ;
#186 = APPROVAL_PERSON_ORGANIZATION ( #208, #61, #112 ) ;
#187 = DIRECTION ( 'NONE',  ( -3.491481338843133355E-15, 1.212637059702799026E-16, -1.000000000000000000 ) ) ;
#188 = APPLICATION_CONTEXT ( 'configuration controlled 3d designs of mechanical parts and assemblies' ) ;
#189 = EDGE_CURVE ( 'NONE', #51, #51, #242, .T. ) ;
#190 = DIRECTION ( 'NONE',  ( 0.0000000000000000000, 1.000000000000000000, 0.0000000000000000000 ) ) ;
#191 = PERSON_AND_ORGANIZATION ( #76, #196 ) ;
#192 = DIRECTION ( 'NONE',  ( 0.0000000000000000000, -1.000000000000000000, 0.0000000000000000000 ) ) ;
#193 = CALENDAR_DATE ( 2021, 13, 12 ) ;
#194 = AXIS2_PLACEMENT_3D ( 'NONE', #10, #111, #254 ) ;
#195 = CARTESIAN_POINT ( 'NONE',  ( 1.117274028429802674E-14, -4.336808689942017736E-16, 3.200000000000000178 ) ) ;
#196 = ORGANIZATION ( 'UNSPECIFIED', 'UNSPECIFIED', '' ) ;
#197 = DIRECTION ( 'NONE',  ( 7.860938548519330173E-31, 1.000000000000000000, 2.212657494868376441E-16 ) ) ;
#198 = COORDINATED_UNIVERSAL_TIME_OFFSET ( 1, 0, .AHEAD. ) ;
#199 = AXIS2_PLACEMENT_3D ( 'NONE', #3, #83, #205 ) ;
#200 = EDGE_LOOP ( 'NONE', ( #81 ) ) ;
#201 = VERTEX_POINT ( 'NONE', #264 ) ;
#202 = EDGE_LOOP ( 'NONE', ( #270 ) ) ;
#203 = CARTESIAN_POINT ( 'NONE',  ( 3.456566525454702022E-14, -1.246147698995077355E-15, 9.900000000000000355 ) ) ;
#204 = ADVANCED_FACE ( 'NONE', ( #139, #237 ), #15, .T. ) ;
#205 = DIRECTION ( 'NONE',  ( 0.0000000000000000000, 1.000000000000000000, 0.0000000000000000000 ) ) ;
#206 = EDGE_LOOP ( 'NONE', ( #295 ) ) ;
#207 = EDGE_LOOP ( 'NONE', ( #56 ) ) ;
#208 = PERSON_AND_ORGANIZATION ( #76, #196 ) ;
#209 = CONICAL_SURFACE ( 'NONE', #297, 1.149999999999999911, 0.2094395102393125097 ) ;
#210 = CC_DESIGN_APPROVAL ( #39, ( #147 ) ) ;
#211 = CARTESIAN_POINT ( 'NONE',  ( 1.571166602479410010E-14, 1.149999999999999245, 4.500000000000000000 ) ) ;
#212 = FACE_OUTER_BOUND ( 'NONE', #134, .T. ) ;
#213 = APPLICATION_PROTOCOL_DEFINITION ( 'international standard', 'config_control_design', 1994, #140 ) ;
#214 = DIRECTION ( 'NONE',  ( -3.491481338843133355E-15, 1.212637059702799026E-16, -1.000000000000000000 ) ) ;
#215 = ADVANCED_FACE ( 'NONE', ( #21 ), #148, .T. ) ;
#216 = AXIS2_PLACEMENT_3D ( 'NONE', #38, #231, #229 ) ;
#217 = DIRECTION ( 'NONE',  ( -4.275831445896958607E-31, -1.000000000000000000, -1.224646799147353207E-16 ) ) ;
#218 = DIRECTION ( 'NONE',  ( 4.275831445896958607E-31, 1.000000000000000000, 1.224646799147353454E-16 ) ) ;
#219 = ADVANCED_FACE ( 'NONE', ( #289 ), #128, .F. ) ;
#220 = DIRECTION ( 'NONE',  ( -3.491481338843133355E-15, 1.212637059702799026E-16, -1.000000000000000000 ) ) ;
#221 = APPROVAL_ROLE ( '' ) ;
#222 = CARTESIAN_POINT ( 'NONE',  ( 1.326762908760390423E-13, -4.653657836759941941E-15, 38.00000000000000000 ) ) ;
#223 = DIRECTION ( 'NONE',  ( 0.0000000000000000000, 1.000000000000000000, 0.0000000000000000000 ) ) ;
#224 = ORIENTED_EDGE ( 'NONE', *, *, #2, .F. ) ;
#225 = DIRECTION ( 'NONE',  ( 3.491481338843133355E-15, -1.212637059702799026E-16, 1.000000000000000000 ) ) ;
#226 = EDGE_LOOP ( 'NONE', ( #156 ) ) ;
#227 = EDGE_LOOP ( 'NONE', ( #22 ) ) ;
#228 = AXIS2_PLACEMENT_3D ( 'NONE', #89, #187, #62 ) ;
#229 = DIRECTION ( 'NONE',  ( 0.0000000000000000000, 1.000000000000000000, 0.0000000000000000000 ) ) ;
#230 = EDGE_CURVE ( 'NONE', #1, #1, #182, .T. ) ;
#231 = DIRECTION ( 'NONE',  ( -3.491481338843133355E-15, 1.212637059702799026E-16, -1.000000000000000000 ) ) ;
#232 = PLANE ( 'NONE',  #194 ) ;
#233 = DIRECTION ( 'NONE',  ( 0.0000000000000000000, 1.000000000000000000, 0.0000000000000000000 ) ) ;
#234 = PLANE ( 'NONE',  #145 ) ;
#235 = PRODUCT_DEFINITION ( 'UNKNOWN', '', #147, #101 ) ;
#236 = CYLINDRICAL_SURFACE ( 'NONE', #65, 0.7499999999999996669 ) ;
#237 = FACE_OUTER_BOUND ( 'NONE', #250, .T. ) ;
#238 = PRODUCT ( '388809', '388809', '', ( #41 ) ) ;
#239 = FACE_OUTER_BOUND ( 'NONE', #185, .T. ) ;
#240 = APPROVAL_PERSON_ORGANIZATION ( #191, #177, #221 ) ;
#241 = CARTESIAN_POINT ( 'NONE',  ( 1.326762908760390423E-13, 1.599999999999993205, 38.00000000000000000 ) ) ;
#242 = CIRCLE ( 'NONE', #293, 0.7499999999999994449 ) ;
#243 = AXIS2_PLACEMENT_3D ( 'NONE', #169, #283, #4 ) ;
#244 = EDGE_LOOP ( 'NONE', ( #224 ) ) ;
#245 = EDGE_CURVE ( 'NONE', #53, #53, #272, .T. ) ;
#246 = CARTESIAN_POINT ( 'NONE',  ( 1.117274028429802674E-14, 0.7499999999999994449, 3.200000000000000178 ) ) ;
#247 = ORIENTED_EDGE ( 'NONE', *, *, #17, .T. ) ;
#248 = PERSON_AND_ORGANIZATION_ROLE ( 'design_supplier' ) ;
#249 = FACE_OUTER_BOUND ( 'NONE', #115, .T. ) ;
#250 = EDGE_LOOP ( 'NONE', ( #60 ) ) ;
#251 = AXIS2_PLACEMENT_3D ( 'NONE', #211, #34, #269 ) ;
#252 = EDGE_CURVE ( 'NONE', #54, #54, #36, .T. ) ;
#253 = DIRECTION ( 'NONE',  ( -3.491481338843133355E-15, 1.212637059702799026E-16, -1.000000000000000000 ) ) ;
#254 = DIRECTION ( 'NONE',  ( 4.233899664741929704E-31, 1.000000000000000000, 1.212637059702799026E-16 ) ) ;
#255 = DIRECTION ( 'NONE',  ( 1.000000000000000000, 0.0000000000000000000, 0.0000000000000000000 ) ) ;
#256 = AXIS2_PLACEMENT_3D ( 'NONE', #80, #225, #126 ) ;
#257 = DIRECTION ( 'NONE',  ( -3.491481338843133355E-15, 1.212637059702799026E-16, -1.000000000000000000 ) ) ;
#258 = DIRECTION ( 'NONE',  ( 0.0000000000000000000, 1.000000000000000000, 0.0000000000000000000 ) ) ;
#259 = PERSON_AND_ORGANIZATION_ROLE ( 'creator' ) ;
#260 = FACE_BOUND ( 'NONE', #175, .T. ) ;
#261 = CONICAL_SURFACE ( 'NONE', #130, 1.999999999999997780, 0.7853981633974516097 ) ;
#262 = CC_DESIGN_PERSON_AND_ORGANIZATION_ASSIGNMENT ( #91, #259, ( #235 ) ) ;
#263 = DATE_AND_TIME ( #301, #288 ) ;
#264 = CARTESIAN_POINT ( 'NONE',  ( 2.901682989385142742E-14, 1.959999999999998632, 8.310750388677677236 ) ) ;
#265 = UNCERTAINTY_MEASURE_WITH_UNIT (LENGTH_MEASURE( 1.000000000000000082E-05 ), #172, 'distance_accuracy_value', 'NONE');
#266 = ORIENTED_EDGE ( 'NONE', *, *, #230, .T. ) ;
#267 = PERSON_AND_ORGANIZATION ( #76, #196 ) ;
#268 = AXIS2_PLACEMENT_3D ( 'NONE', #222, #152, #129 ) ;
#269 = DIRECTION ( 'NONE',  ( 4.233899664741929704E-31, 1.000000000000000000, 1.212637059702799026E-16 ) ) ;
#270 = ORIENTED_EDGE ( 'NONE', *, *, #170, .T. ) ;
#271 = ORIENTED_EDGE ( 'NONE', *, *, #114, .F. ) ;
#272 = CIRCLE ( 'NONE', #268, 1.599999999999997646 ) ;
#273 = EDGE_LOOP ( 'NONE', ( #266 ) ) ;
#274 = FACE_OUTER_BOUND ( 'NONE', #28, .T. ) ;
#275 = CARTESIAN_POINT ( 'NONE',  ( -2.993155244651669039E-31, 1.049857534374886423E-32, -8.572737340315903028E-17 ) ) ;
#276 = DATE_AND_TIME ( #193, #66 ) ;
#277 = CARTESIAN_POINT ( 'NONE',  ( 1.117274028429802674E-14, -4.336808689942017736E-16, 3.200000000000000178 ) ) ;
#278 = PERSON_AND_ORGANIZATION ( #76, #196 ) ;
#279 = CARTESIAN_POINT ( 'NONE',  ( 2.901682989385142742E-14, -1.053429401414305478E-15, 8.310750388677677236 ) ) ;
#280 = CC_DESIGN_PERSON_AND_ORGANIZATION_ASSIGNMENT ( #278, #47, ( #238 ) ) ;
#281 = LOCAL_TIME ( 11, 25, 57.00000000000000000, #18 ) ;
#282 = EDGE_LOOP ( 'NONE', ( #97 ) ) ;
#283 = DIRECTION ( 'NONE',  ( 3.491481338843133355E-15, -1.224646799147353207E-16, 1.000000000000000000 ) ) ;
#284 = ORIENTED_EDGE ( 'NONE', *, *, #189, .F. ) ;
#285 = CC_DESIGN_PERSON_AND_ORGANIZATION_ASSIGNMENT ( #181, #180, ( #159 ) ) ;
#286 = ORIENTED_EDGE ( 'NONE', *, *, #230, .F. ) ;
#287 = CLOSED_SHELL ( 'NONE', ( #219, #88, #117 ) ) ;
#288 = LOCAL_TIME ( 11, 25, 57.00000000000000000, #168 ) ;
#289 = FACE_OUTER_BOUND ( 'NONE', #200, .T. ) ;
#290 = CC_DESIGN_PERSON_AND_ORGANIZATION_ASSIGNMENT ( #267, #176, ( #147 ) ) ;
#291 = DIRECTION ( 'NONE',  ( -3.491481338843133355E-15, 1.212637059702799026E-16, -1.000000000000000000 ) ) ;
#292 = AXIS2_PLACEMENT_3D ( 'NONE', #277, #214, #197 ) ;
#293 = AXIS2_PLACEMENT_3D ( 'NONE', #275, #164, #218 ) ;
#294 = DATE_AND_TIME ( #107, #79 ) ;
#295 = ORIENTED_EDGE ( 'NONE', *, *, #170, .F. ) ;
#296 = DIRECTION ( 'NONE',  ( 0.0000000000000000000, 1.000000000000000000, 0.0000000000000000000 ) ) ;
#297 = AXIS2_PLACEMENT_3D ( 'NONE', #92, #144, #192 ) ;
#298 = FACE_OUTER_BOUND ( 'NONE', #26, .T. ) ;
#299 = DIRECTION ( 'NONE',  ( 4.275831445896958607E-31, 1.000000000000000000, 1.224646799147353454E-16 ) ) ;
#300 = DIRECTION ( 'NONE',  ( -3.491481338843133355E-15, 1.212637059702799026E-16, -1.000000000000000000 ) ) ;
#301 = CALENDAR_DATE ( 2021, 13, 12 ) ;
#302 = FACE_OUTER_BOUND ( 'NONE', #202, .T. ) ;
#303 = APPROVAL_DATE_TIME ( #276, #177 ) ;
ENDSEC;
END-ISO-10303-21;
