ISO-10303-21;
HEADER;
FILE_DESCRIPTION (( 'STEP AP203' ),
    '1' );
FILE_NAME ('388808.step',
    '2021-12-13T10:25:56',
    ( '' ),
    ( '' ),
    'SwSTEP 2.0',
    'SolidWorks 2019',
    '' );
FILE_SCHEMA (( 'CONFIG_CONTROL_DESIGN' ));
ENDSEC;

DATA;
#1 = FACE_OUTER_BOUND ( 'NONE', #219, .T. ) ;
#2 = AXIS2_PLACEMENT_3D ( 'NONE', #320, #98, #170 ) ;
#3 = APPROVAL_PERSON_ORGANIZATION ( #187, #209, #69 ) ;
#4 = DIRECTION ( 'NONE',  ( -4.317862285308156031E-31, -1.000000000000000000, -1.236684910004083010E-16 ) ) ;
#5 = DIRECTION ( 'NONE',  ( -4.317862285308156031E-31, -1.000000000000000000, -1.236684910004083010E-16 ) ) ;
#6 = FACE_BOUND ( 'NONE', #222, .T. ) ;
#7 = EDGE_CURVE ( 'NONE', #47, #47, #145, .T. ) ;
#8 = CYLINDRICAL_SURFACE ( 'NONE', #178, 0.6999999999999999556 ) ;
#9 = CARTESIAN_POINT ( 'NONE',  ( 1.466422162314116325E-14, -4.336808689942017736E-16, 4.200000000000000178 ) ) ;
#10 = CC_DESIGN_SECURITY_CLASSIFICATION ( #91, ( #34 ) ) ;
#11 = EDGE_CURVE ( 'NONE', #258, #258, #72, .T. ) ;
#12 = PERSON_AND_ORGANIZATION ( #206, #15 ) ;
#13 = ORIENTED_EDGE ( 'NONE', *, *, #93, .F. ) ;
#14 = DIRECTION ( 'NONE',  ( 1.000000000000000000, 0.0000000000000000000, 0.0000000000000000000 ) ) ;
#15 = ORGANIZATION ( 'UNSPECIFIED', 'UNSPECIFIED', '' ) ;
#16 = CARTESIAN_POINT ( 'NONE',  ( 0.0000000000000000000, 0.0000000000000000000, 0.0000000000000000000 ) ) ;
#17 = ADVANCED_FACE ( 'NONE', ( #144 ), #221, .T. ) ;
#18 = EDGE_LOOP ( 'NONE', ( #13 ) ) ;
#19 = PERSON_AND_ORGANIZATION_ROLE ( 'classification_officer' ) ;
#20 = AXIS2_PLACEMENT_3D ( 'NONE', #9, #132, #105 ) ;
#21 = ADVANCED_FACE ( 'NONE', ( #64 ), #298, .F. ) ;
#22 = EDGE_LOOP ( 'NONE', ( #52 ) ) ;
#23 = APPLICATION_CONTEXT ( 'configuration controlled 3d designs of mechanical parts and assemblies' ) ;
#24 = EDGE_LOOP ( 'NONE', ( #124 ) ) ;
#25 = ORIENTED_EDGE ( 'NONE', *, *, #173, .T. ) ;
#26 = CIRCLE ( 'NONE', #78, 1.959999999999999964 ) ;
#27 = APPROVAL_PERSON_ORGANIZATION ( #116, #286, #259 ) ;
#28 = DIRECTION ( 'NONE',  ( -4.275831445896958607E-31, -1.000000000000000000, -1.224646799147353207E-16 ) ) ;
#29 = DIRECTION ( 'NONE',  ( 3.491481338843133355E-15, -1.236684910004083010E-16, 1.000000000000000000 ) ) ;
#30 = PLANE ( 'NONE',  #280 ) ;
#31 = DIRECTION ( 'NONE',  ( 0.0000000000000000000, -1.000000000000000000, 0.0000000000000000000 ) ) ;
#32 = FACE_OUTER_BOUND ( 'NONE', #272, .T. ) ;
#33 = DIRECTION ( 'NONE',  ( 0.0000000000000000000, -1.000000000000000000, 0.0000000000000000000 ) ) ;
#34 = PRODUCT_DEFINITION_FORMATION_WITH_SPECIFIED_SOURCE ( 'ANY', '', #239, .NOT_KNOWN. ) ;
#35 = EDGE_CURVE ( 'NONE', #123, #123, #227, .T. ) ;
#36 = CYLINDRICAL_SURFACE ( 'NONE', #212, 1.999999999999997335 ) ;
#37 = DIRECTION ( 'NONE',  ( -4.317862285308156031E-31, -1.000000000000000000, -1.236684910004083010E-16 ) ) ;
#38 = CYLINDRICAL_SURFACE ( 'NONE', #274, 0.6999999999999996225 ) ;
#39 = ADVANCED_FACE ( 'NONE', ( #179, #32 ), #197, .T. ) ;
#40 = MANIFOLD_SOLID_BREP ( 'Corps-Déplacer/Copier4[2]', #245 ) ;
#41 = AXIS2_PLACEMENT_3D ( 'NONE', #283, #257, #120 ) ;
#42 = APPROVAL_STATUS ( 'not_yet_approved' ) ;
#43 = SECURITY_CLASSIFICATION_LEVEL ( 'unclassified' ) ;
#44 = ADVANCED_FACE ( 'NONE', ( #177 ), #30, .F. ) ;
#45 = CARTESIAN_POINT ( 'NONE',  ( 2.880734101352085330E-14, -1.960000000000000853, 8.250750388677682068 ) ) ;
#46 = AXIS2_PLACEMENT_3D ( 'NONE', #107, #202, #28 ) ;
#47 = VERTEX_POINT ( 'NONE', #211 ) ;
#48 = ORIENTED_EDGE ( 'NONE', *, *, #11, .F. ) ;
#49 = PERSON_AND_ORGANIZATION ( #206, #15 ) ;
#50 = PRODUCT_DEFINITION_SHAPE ( 'NONE', 'NONE',  #297 ) ;
#51 = EDGE_LOOP ( 'NONE', ( #291 ) ) ;
#52 = ORIENTED_EDGE ( 'NONE', *, *, #173, .F. ) ;
#53 = DIRECTION ( 'NONE',  ( 3.491481338843133355E-15, -1.224646799147353207E-16, 1.000000000000000000 ) ) ;
#54 = CC_DESIGN_PERSON_AND_ORGANIZATION_ASSIGNMENT ( #242, #162, ( #34 ) ) ;
#55 = DIRECTION ( 'NONE',  ( -3.491481338843133355E-15, 1.224646799147353207E-16, -1.000000000000000000 ) ) ;
#56 = AXIS2_PLACEMENT_3D ( 'NONE', #153, #151, #31 ) ;
#57 = FACE_OUTER_BOUND ( 'NONE', #24, .T. ) ;
#58 = CARTESIAN_POINT ( 'NONE',  ( 1.466422162314116956E-14, -4.736628409461414985E-16, 4.200000000000001954 ) ) ;
#59 = DIRECTION ( 'NONE',  ( 0.0000000000000000000, -1.000000000000000000, 0.0000000000000000000 ) ) ;
#60 = ADVANCED_FACE ( 'NONE', ( #148, #251 ), #223, .T. ) ;
#61 = DIRECTION ( 'NONE',  ( 3.491481338843133355E-15, -1.236684910004083010E-16, 1.000000000000000000 ) ) ;
#62 = DIRECTION ( 'NONE',  ( 0.0000000000000000000, -1.000000000000000000, 0.0000000000000000000 ) ) ;
#63 = AXIS2_PLACEMENT_3D ( 'NONE', #231, #300, #82 ) ;
#64 = FACE_OUTER_BOUND ( 'NONE', #264, .T. ) ;
#65 = EDGE_LOOP ( 'NONE', ( #76 ) ) ;
#66 = AXIS2_PLACEMENT_3D ( 'NONE', #306, #55, #79 ) ;
#67 = FACE_OUTER_BOUND ( 'NONE', #65, .T. ) ;
#68 = CARTESIAN_POINT ( 'NONE',  ( 2.137183397710479182E-32, 0.6999999999999995115, 6.121136532892404794E-18 ) ) ;
#69 = APPROVAL_ROLE ( '' ) ;
#70 =( NAMED_UNIT ( * ) PLANE_ANGLE_UNIT ( ) SI_UNIT ( $, .RADIAN. ) );
#71 = APPLICATION_CONTEXT ( 'configuration controlled 3d designs of mechanical parts and assemblies' ) ;
#72 = CIRCLE ( 'NONE', #2, 0.6999999999999998446 ) ;
#73 = ORIENTED_EDGE ( 'NONE', *, *, #7, .T. ) ;
#74 = APPROVAL_DATE_TIME ( #194, #243 ) ;
#75 = EDGE_LOOP ( 'NONE', ( #48 ) ) ;
#76 = ORIENTED_EDGE ( 'NONE', *, *, #299, .T. ) ;
#77 = ORIENTED_EDGE ( 'NONE', *, *, #299, .F. ) ;
#78 = AXIS2_PLACEMENT_3D ( 'NONE', #155, #277, #59 ) ;
#79 = DIRECTION ( 'NONE',  ( 4.275831445896958607E-31, 1.000000000000000000, 1.224646799147353207E-16 ) ) ;
#80 = PLANE ( 'NONE',  #46 ) ;
#81 = CARTESIAN_POINT ( 'NONE',  ( 1.326762908760390423E-13, -4.653657836759941941E-15, 38.00000000000000000 ) ) ;
#82 = DIRECTION ( 'NONE',  ( 0.0000000000000000000, 1.000000000000000000, 0.0000000000000000000 ) ) ;
#83 = FACE_OUTER_BOUND ( 'NONE', #236, .T. ) ;
#84 = FACE_OUTER_BOUND ( 'NONE', #198, .T. ) ;
#85 = DIRECTION ( 'NONE',  ( 3.491481338843133355E-15, -1.236684910004083010E-16, 1.000000000000000000 ) ) ;
#86 = AXIS2_PLACEMENT_3D ( 'NONE', #135, #252, #5 ) ;
#87 = FACE_OUTER_BOUND ( 'NONE', #224, .T. ) ;
#88 = ADVANCED_FACE ( 'NONE', ( #84 ), #80, .F. ) ;
#89 = PERSON_AND_ORGANIZATION ( #206, #15 ) ;
#90 = AXIS2_PLACEMENT_3D ( 'NONE', #304, #182, #156 ) ;
#91 = SECURITY_CLASSIFICATION ( '', '', #43 ) ;
#92 = APPLICATION_PROTOCOL_DEFINITION ( 'international standard', 'config_control_design', 1994, #71 ) ;
#93 = EDGE_CURVE ( 'NONE', #186, #186, #117, .T. ) ;
#94 = COORDINATED_UNIVERSAL_TIME_OFFSET ( 1, 0, .AHEAD. ) ;
#95 = CALENDAR_DATE ( 2021, 13, 12 ) ;
#96 = CARTESIAN_POINT ( 'NONE',  ( 1.550217714446351020E-14, -5.033432787862395914E-16, 4.439999999999999503 ) ) ;
#97 =( GEOMETRIC_REPRESENTATION_CONTEXT ( 3 ) GLOBAL_UNCERTAINTY_ASSIGNED_CONTEXT ( ( #152 ) ) GLOBAL_UNIT_ASSIGNED_CONTEXT ( ( #240, #70, #262 ) ) REPRESENTATION_CONTEXT ( 'NONE', 'WORKASPACE' ) );
#98 = DIRECTION ( 'NONE',  ( -3.491481338843133355E-15, 1.224646799147353207E-16, -1.000000000000000000 ) ) ;
#99 = ORIENTED_EDGE ( 'NONE', *, *, #35, .T. ) ;
#100 = AXIS2_PLACEMENT_3D ( 'NONE', #96, #172, #195 ) ;
#101 = EDGE_CURVE ( 'NONE', #290, #290, #269, .T. ) ;
#102 = EDGE_LOOP ( 'NONE', ( #196 ) ) ;
#103 = CARTESIAN_POINT ( 'NONE',  ( 1.312796983405018142E-13, -4.604190440359778453E-15, 37.60000000000000142 ) ) ;
#104 = PRODUCT_RELATED_PRODUCT_CATEGORY ( 'detail', '', ( #239 ) ) ;
#105 = DIRECTION ( 'NONE',  ( -4.430863538087984068E-31, -1.000000000000000000, -1.236684910004083010E-16 ) ) ;
#106 = AXIS2_PLACEMENT_3D ( 'NONE', #270, #53, #146 ) ;
#107 = CARTESIAN_POINT ( 'NONE',  ( -1.389681836178410729E-31, 4.874347726208967711E-33, -3.980206970371113274E-17 ) ) ;
#108 = PLANE ( 'NONE',  #321 ) ;
#109 = CARTESIAN_POINT ( 'NONE',  ( 1.550217714446351020E-14, -5.033432787862395914E-16, 4.439999999999999503 ) ) ;
#110 = CARTESIAN_POINT ( 'NONE',  ( 1.047444401652940953E-14, -3.252606517456521191E-16, 3.000000000000002665 ) ) ;
#111 = CC_DESIGN_DATE_AND_TIME_ASSIGNMENT ( #171, #315, ( #91 ) ) ;
#112 = CIRCLE ( 'NONE', #208, 0.7000000000000000666 ) ;
#113 = PERSON_AND_ORGANIZATION_ROLE ( 'design_owner' ) ;
#114 = ORIENTED_EDGE ( 'NONE', *, *, #319, .T. ) ;
#115 = EDGE_CURVE ( 'NONE', #312, #312, #133, .T. ) ;
#116 = PERSON_AND_ORGANIZATION ( #206, #15 ) ;
#117 = CIRCLE ( 'NONE', #90, 1.999999999999996669 ) ;
#118 = COORDINATED_UNIVERSAL_TIME_OFFSET ( 1, 0, .AHEAD. ) ;
#119 = ADVANCED_BREP_SHAPE_REPRESENTATION ( '388808', ( #250, #40, #307 ), #97 ) ;
#120 = DIRECTION ( 'NONE',  ( 0.0000000000000000000, -1.000000000000000000, 0.0000000000000000000 ) ) ;
#121 = PERSON_AND_ORGANIZATION ( #206, #15 ) ;
#122 = ADVANCED_FACE ( 'NONE', ( #254, #6 ), #108, .F. ) ;
#123 = VERTEX_POINT ( 'NONE', #68 ) ;
#124 = ORIENTED_EDGE ( 'NONE', *, *, #7, .F. ) ;
#125 = CALENDAR_DATE ( 2021, 13, 12 ) ;
#126 = PERSON_AND_ORGANIZATION_ROLE ( 'design_supplier' ) ;
#127 = ORIENTED_EDGE ( 'NONE', *, *, #115, .F. ) ;
#128 = CC_DESIGN_DATE_AND_TIME_ASSIGNMENT ( #143, #311, ( #297 ) ) ;
#129 = EDGE_LOOP ( 'NONE', ( #77 ) ) ;
#130 = AXIS2_PLACEMENT_3D ( 'NONE', #109, #205, #140 ) ;
#131 = DIRECTION ( 'NONE',  ( 3.491481338843133355E-15, -1.236684910004083010E-16, 1.000000000000000000 ) ) ;
#132 = DIRECTION ( 'NONE',  ( 3.491481338843133355E-15, -1.236684910004083010E-16, 1.000000000000000000 ) ) ;
#133 = CIRCLE ( 'NONE', #185, 1.999999999999997780 ) ;
#134 = FACE_OUTER_BOUND ( 'NONE', #18, .T. ) ;
#135 = CARTESIAN_POINT ( 'NONE',  ( 3.421651712066271319E-14, 1.999999999999995337, 9.800000000000000711 ) ) ;
#136 = APPROVAL_ROLE ( '' ) ;
#137 = CARTESIAN_POINT ( 'NONE',  ( 3.421651712066271319E-14, -1.999999999999997780, 9.800000000000002487 ) ) ;
#138 = AXIS2_PLACEMENT_3D ( 'NONE', #273, #61, #233 ) ;
#139 = CARTESIAN_POINT ( 'NONE',  ( 1.466422162314116956E-14, -0.7000000000000005107, 4.200000000000001954 ) ) ;
#140 = DIRECTION ( 'NONE',  ( 0.0000000000000000000, -1.000000000000000000, 0.0000000000000000000 ) ) ;
#141 = ORIENTED_EDGE ( 'NONE', *, *, #101, .F. ) ;
#142 = ADVANCED_FACE ( 'NONE', ( #57, #184 ), #193, .F. ) ;
#143 = DATE_AND_TIME ( #95, #149 ) ;
#144 = FACE_OUTER_BOUND ( 'NONE', #75, .T. ) ;
#145 = CIRCLE ( 'NONE', #100, 0.7144522166414630782 ) ;
#146 = DIRECTION ( 'NONE',  ( -4.275831445896958607E-31, -1.000000000000000000, -1.224646799147353207E-16 ) ) ;
#147 = ORIENTED_EDGE ( 'NONE', *, *, #192, .T. ) ;
#148 = FACE_OUTER_BOUND ( 'NONE', #129, .T. ) ;
#149 = LOCAL_TIME ( 11, 25, 56.00000000000000000, #293 ) ;
#150 = CARTESIAN_POINT ( 'NONE',  ( 1.550217714446351020E-14, -5.033432787862395914E-16, 4.439999999999999503 ) ) ;
#151 = DIRECTION ( 'NONE',  ( 3.491481338843133355E-15, -1.236684910004083010E-16, 1.000000000000000000 ) ) ;
#152 = UNCERTAINTY_MEASURE_WITH_UNIT (LENGTH_MEASURE( 1.000000000000000082E-05 ), #240, 'distance_accuracy_value', 'NONE');
#153 = CARTESIAN_POINT ( 'NONE',  ( 1.326762908760390423E-13, -4.653657836759941941E-15, 38.00000000000000000 ) ) ;
#154 = DIRECTION ( 'NONE',  ( 0.0000000000000000000, -1.000000000000000000, 0.0000000000000000000 ) ) ;
#155 = CARTESIAN_POINT ( 'NONE',  ( 2.880734101352085330E-14, -9.746130289332278561E-16, 8.250750388677682068 ) ) ;
#156 = DIRECTION ( 'NONE',  ( 0.0000000000000000000, -1.000000000000000000, 0.0000000000000000000 ) ) ;
#157 = ORIENTED_EDGE ( 'NONE', *, *, #192, .F. ) ;
#158 = CARTESIAN_POINT ( 'NONE',  ( 3.421651712066271319E-14, -1.960000000000001297, 9.800000000000002487 ) ) ;
#159 = ADVANCED_FACE ( 'NONE', ( #134, #181 ), #303, .F. ) ;
#160 = CC_DESIGN_APPROVAL ( #286, ( #34 ) ) ;
#161 = VERTEX_POINT ( 'NONE', #139 ) ;
#162 = PERSON_AND_ORGANIZATION_ROLE ( 'creator' ) ;
#163 = VERTEX_POINT ( 'NONE', #217 ) ;
#164 = CARTESIAN_POINT ( 'NONE',  ( 1.047444401652940007E-14, 0.6999999999999995115, 3.000000000000000000 ) ) ;
#165 = EDGE_CURVE ( 'NONE', #161, #161, #112, .T. ) ;
#166 = CARTESIAN_POINT ( 'NONE',  ( 1.312796983405018142E-13, -2.000000000000002665, 37.60000000000000142 ) ) ;
#167 = EDGE_LOOP ( 'NONE', ( #157 ) ) ;
#168 = DATE_AND_TIME ( #125, #235 ) ;
#169 = PERSON_AND_ORGANIZATION ( #206, #15 ) ;
#170 = DIRECTION ( 'NONE',  ( 0.0000000000000000000, 1.000000000000000000, 0.0000000000000000000 ) ) ;
#171 = DATE_AND_TIME ( #213, #316 ) ;
#172 = DIRECTION ( 'NONE',  ( 3.491481338843133355E-15, -1.236684910004083010E-16, 1.000000000000000000 ) ) ;
#173 = EDGE_CURVE ( 'NONE', #309, #309, #310, .T. ) ;
#174 = AXIS2_PLACEMENT_3D ( 'NONE', #110, #282, #278 ) ;
#175 = EDGE_LOOP ( 'NONE', ( #141 ) ) ;
#176 = DIRECTION ( 'NONE',  ( 3.491481338843133355E-15, -1.236684910004083010E-16, 1.000000000000000000 ) ) ;
#177 = FACE_OUTER_BOUND ( 'NONE', #167, .T. ) ;
#178 = AXIS2_PLACEMENT_3D ( 'NONE', #81, #180, #232 ) ;
#179 = FACE_BOUND ( 'NONE', #22, .T. ) ;
#180 = DIRECTION ( 'NONE',  ( 3.491481338843133355E-15, -1.236684910004083010E-16, 1.000000000000000000 ) ) ;
#181 = FACE_BOUND ( 'NONE', #51, .T. ) ;
#182 = DIRECTION ( 'NONE',  ( 3.491481338843133355E-15, -1.236684910004083010E-16, 1.000000000000000000 ) ) ;
#183 = CC_DESIGN_PERSON_AND_ORGANIZATION_ASSIGNMENT ( #12, #113, ( #239 ) ) ;
#184 = FACE_OUTER_BOUND ( 'NONE', #102, .T. ) ;
#185 = AXIS2_PLACEMENT_3D ( 'NONE', #103, #131, #154 ) ;
#186 = VERTEX_POINT ( 'NONE', #137 ) ;
#187 = PERSON_AND_ORGANIZATION ( #206, #15 ) ;
#188 = CYLINDRICAL_SURFACE ( 'NONE', #41, 1.959999999999999964 ) ;
#189 = APPROVAL_DATE_TIME ( #289, #209 ) ;
#190 = CARTESIAN_POINT ( 'NONE',  ( 1.550217714446351020E-14, -1.149999999999999911, 4.439999999999999503 ) ) ;
#191 = APPROVAL_STATUS ( 'not_yet_approved' ) ;
#192 = EDGE_CURVE ( 'NONE', #163, #163, #248, .T. ) ;
#193 = TOROIDAL_SURFACE ( 'NONE', #20, 2.700000000000000178, 2.000000000000000000 ) ;
#194 = DATE_AND_TIME ( #287, #214 ) ;
#195 = DIRECTION ( 'NONE',  ( 0.0000000000000000000, -1.000000000000000000, 0.0000000000000000000 ) ) ;
#196 = ORIENTED_EDGE ( 'NONE', *, *, #165, .T. ) ;
#197 = CONICAL_SURFACE ( 'NONE', #63, 1.999999999999997780, 0.7853981633974516097 ) ;
#198 = EDGE_LOOP ( 'NONE', ( #99 ) ) ;
#199 = EDGE_LOOP ( 'NONE', ( #127 ) ) ;
#200 = CLOSED_SHELL ( 'NONE', ( #276, #142, #122, #60, #323, #159, #238, #39, #21, #44 ) ) ;
#201 = CARTESIAN_POINT ( 'NONE',  ( 1.326762908760390423E-13, -4.653657836759941941E-15, 38.00000000000000000 ) ) ;
#202 = DIRECTION ( 'NONE',  ( 3.491481338843133355E-15, -1.224646799147353207E-16, 1.000000000000000000 ) ) ;
#203 = FACE_OUTER_BOUND ( 'NONE', #247, .T. ) ;
#204 = CARTESIAN_POINT ( 'NONE',  ( 1.550217714446351020E-14, 0.7144522166414625231, 4.439999999999999503 ) ) ;
#205 = DIRECTION ( 'NONE',  ( 3.491481338843133355E-15, -1.236684910004083010E-16, 1.000000000000000000 ) ) ;
#206 = PERSON ( 'UNSPECIFIED', 'UNSPECIFIED', 'UNSPECIFIED', ('UNSPECIFIED'), ('UNSPECIFIED'), ('UNSPECIFIED') ) ;
#207 = DIRECTION ( 'NONE',  ( -3.491481338843133355E-15, 1.224646799147353207E-16, -1.000000000000000000 ) ) ;
#208 = AXIS2_PLACEMENT_3D ( 'NONE', #58, #29, #33 ) ;
#209 = APPROVAL ( #191, 'UNSPECIFIED' ) ;
#210 = APPLICATION_PROTOCOL_DEFINITION ( 'international standard', 'config_control_design', 1994, #23 ) ;
#211 = CARTESIAN_POINT ( 'NONE',  ( 1.550217714446351020E-14, -0.7144522166414636333, 4.439999999999999503 ) ) ;
#212 = AXIS2_PLACEMENT_3D ( 'NONE', #305, #85, #62 ) ;
#213 = CALENDAR_DATE ( 2021, 13, 12 ) ;
#214 = LOCAL_TIME ( 11, 25, 56.00000000000000000, #118 ) ;
#215 = ADVANCED_FACE ( 'NONE', ( #203, #226 ), #38, .T. ) ;
#216 = SHAPE_DEFINITION_REPRESENTATION ( #50, #119 ) ;
#217 = CARTESIAN_POINT ( 'NONE',  ( 1.047444401652940953E-14, -0.7000000000000001776, 3.000000000000002665 ) ) ;
#218 = MECHANICAL_CONTEXT ( 'NONE', #71, 'mechanical' ) ;
#219 = EDGE_LOOP ( 'NONE', ( #296 ) ) ;
#220 = ORIENTED_EDGE ( 'NONE', *, *, #35, .F. ) ;
#221 = PLANE ( 'NONE',  #106 ) ;
#222 = EDGE_LOOP ( 'NONE', ( #73 ) ) ;
#223 = CONICAL_SURFACE ( 'NONE', #285, 1.149999999999999467, 0.2094395102393123986 ) ;
#224 = EDGE_LOOP ( 'NONE', ( #317 ) ) ;
#225 = DIRECTION ( 'NONE',  ( 3.491481338843133355E-15, -1.236684910004083010E-16, 1.000000000000000000 ) ) ;
#226 = FACE_OUTER_BOUND ( 'NONE', #268, .T. ) ;
#227 = CIRCLE ( 'NONE', #66, 0.6999999999999995115 ) ;
#228 = DIRECTION ( 'NONE',  ( 3.491481338843133355E-15, -1.236684910004083010E-16, 1.000000000000000000 ) ) ;
#229 = LOCAL_TIME ( 11, 25, 56.00000000000000000, #94 ) ;
#230 = FACE_OUTER_BOUND ( 'NONE', #199, .T. ) ;
#231 = CARTESIAN_POINT ( 'NONE',  ( 1.312796983405018142E-13, -4.604190440359778453E-15, 37.60000000000000142 ) ) ;
#232 = DIRECTION ( 'NONE',  ( 0.0000000000000000000, -1.000000000000000000, 0.0000000000000000000 ) ) ;
#233 = DIRECTION ( 'NONE',  ( 0.0000000000000000000, -1.000000000000000000, 0.0000000000000000000 ) ) ;
#234 = CARTESIAN_POINT ( 'NONE',  ( 0.0000000000000000000, 0.0000000000000000000, 0.0000000000000000000 ) ) ;
#235 = LOCAL_TIME ( 11, 25, 56.00000000000000000, #314 ) ;
#236 = EDGE_LOOP ( 'NONE', ( #147 ) ) ;
#237 = DIRECTION ( 'NONE',  ( 0.0000000000000000000, 0.0000000000000000000, 1.000000000000000000 ) ) ;
#238 = ADVANCED_FACE ( 'NONE', ( #230, #87 ), #36, .T. ) ;
#239 = PRODUCT ( '388808', '388808', '', ( #218 ) ) ;
#240 =( LENGTH_UNIT ( ) NAMED_UNIT ( * ) SI_UNIT ( .MILLI., .METRE. ) );
#241 = ORIENTED_EDGE ( 'NONE', *, *, #11, .T. ) ;
#242 = PERSON_AND_ORGANIZATION ( #206, #15 ) ;
#243 = APPROVAL ( #42, 'UNSPECIFIED' ) ;
#244 = ORIENTED_EDGE ( 'NONE', *, *, #319, .F. ) ;
#245 = CLOSED_SHELL ( 'NONE', ( #88, #215, #17 ) ) ;
#246 = CC_DESIGN_PERSON_AND_ORGANIZATION_ASSIGNMENT ( #49, #19, ( #91 ) ) ;
#247 = EDGE_LOOP ( 'NONE', ( #220 ) ) ;
#248 = CIRCLE ( 'NONE', #174, 0.6999999999999998446 ) ;
#249 = DIRECTION ( 'NONE',  ( 0.0000000000000000000, -1.000000000000000000, 0.0000000000000000000 ) ) ;
#250 = MANIFOLD_SOLID_BREP ( 'Corps-Déplacer/Copier4[1]', #200 ) ;
#251 = FACE_BOUND ( 'NONE', #294, .T. ) ;
#252 = DIRECTION ( 'NONE',  ( 3.491481338843133355E-15, -1.236684910004083010E-16, 1.000000000000000000 ) ) ;
#253 = CIRCLE ( 'NONE', #130, 1.149999999999999467 ) ;
#254 = FACE_OUTER_BOUND ( 'NONE', #322, .T. ) ;
#255 = CC_DESIGN_APPROVAL ( #243, ( #297 ) ) ;
#256 = CARTESIAN_POINT ( 'NONE',  ( 1.047444401652940007E-14, 0.6999999999999995115, 3.000000000000000000 ) ) ;
#257 = DIRECTION ( 'NONE',  ( 3.491481338843133355E-15, -1.236684910004083010E-16, 1.000000000000000000 ) ) ;
#258 = VERTEX_POINT ( 'NONE', #164 ) ;
#259 = APPROVAL_ROLE ( '' ) ;
#260 = VERTEX_POINT ( 'NONE', #45 ) ;
#261 = COORDINATED_UNIVERSAL_TIME_OFFSET ( 1, 0, .AHEAD. ) ;
#262 =( NAMED_UNIT ( * ) SI_UNIT ( $, .STERADIAN. ) SOLID_ANGLE_UNIT ( ) );
#263 = CC_DESIGN_PERSON_AND_ORGANIZATION_ASSIGNMENT ( #121, #126, ( #34 ) ) ;
#264 = EDGE_LOOP ( 'NONE', ( #25 ) ) ;
#265 = APPROVAL_DATE_TIME ( #168, #286 ) ;
#266 = PERSON_AND_ORGANIZATION_ROLE ( 'creator' ) ;
#267 = ORIENTED_EDGE ( 'NONE', *, *, #115, .T. ) ;
#268 = EDGE_LOOP ( 'NONE', ( #241 ) ) ;
#269 = CIRCLE ( 'NONE', #138, 1.959999999999999964 ) ;
#270 = CARTESIAN_POINT ( 'NONE',  ( 1.047444401652940007E-14, 5.249159239316495469E-33, 3.000000000000000000 ) ) ;
#271 = CC_DESIGN_PERSON_AND_ORGANIZATION_ASSIGNMENT ( #169, #266, ( #297 ) ) ;
#272 = EDGE_LOOP ( 'NONE', ( #267 ) ) ;
#273 = CARTESIAN_POINT ( 'NONE',  ( 3.421651712066271319E-14, -1.166206390548428260E-15, 9.800000000000002487 ) ) ;
#274 = AXIS2_PLACEMENT_3D ( 'NONE', #234, #207, #308 ) ;
#275 = DIRECTION ( 'NONE',  ( 4.317862285308156031E-31, 1.000000000000000000, 1.236684910004083010E-16 ) ) ;
#276 = ADVANCED_FACE ( 'NONE', ( #1, #83 ), #8, .T. ) ;
#277 = DIRECTION ( 'NONE',  ( 3.491481338843133355E-15, -1.236684910004083010E-16, 1.000000000000000000 ) ) ;
#278 = DIRECTION ( 'NONE',  ( 0.0000000000000000000, -1.000000000000000000, 0.0000000000000000000 ) ) ;
#279 = DESIGN_CONTEXT ( 'detailed design', #23, 'design' ) ;
#280 = AXIS2_PLACEMENT_3D ( 'NONE', #256, #228, #4 ) ;
#281 = APPROVAL_PERSON_ORGANIZATION ( #89, #243, #136 ) ;
#282 = DIRECTION ( 'NONE',  ( 3.491481338843133355E-15, -1.236684910004083010E-16, 1.000000000000000000 ) ) ;
#283 = CARTESIAN_POINT ( 'NONE',  ( 1.326762908760390423E-13, -4.653657836759941941E-15, 38.00000000000000000 ) ) ;
#284 = FACE_OUTER_BOUND ( 'NONE', #175, .T. ) ;
#285 = AXIS2_PLACEMENT_3D ( 'NONE', #150, #176, #249 ) ;
#286 = APPROVAL ( #318, 'UNSPECIFIED' ) ;
#287 = CALENDAR_DATE ( 2021, 13, 12 ) ;
#288 = CARTESIAN_POINT ( 'NONE',  ( 1.326762908760390423E-13, -1.600000000000002309, 38.00000000000000000 ) ) ;
#289 = DATE_AND_TIME ( #295, #229 ) ;
#290 = VERTEX_POINT ( 'NONE', #158 ) ;
#291 = ORIENTED_EDGE ( 'NONE', *, *, #101, .T. ) ;
#292 = AXIS2_PLACEMENT_3D ( 'NONE', #201, #302, #275 ) ;
#293 = COORDINATED_UNIVERSAL_TIME_OFFSET ( 1, 0, .AHEAD. ) ;
#294 = EDGE_LOOP ( 'NONE', ( #114 ) ) ;
#295 = CALENDAR_DATE ( 2021, 13, 12 ) ;
#296 = ORIENTED_EDGE ( 'NONE', *, *, #165, .F. ) ;
#297 = PRODUCT_DEFINITION ( 'UNKNOWN', '', #34, #279 ) ;
#298 = PLANE ( 'NONE',  #292 ) ;
#299 = EDGE_CURVE ( 'NONE', #260, #260, #26, .T. ) ;
#300 = DIRECTION ( 'NONE',  ( -3.491481338843133355E-15, 1.236684910004083010E-16, -1.000000000000000000 ) ) ;
#301 = CC_DESIGN_APPROVAL ( #209, ( #91 ) ) ;
#302 = DIRECTION ( 'NONE',  ( -3.491481338843133355E-15, 1.236684910004083010E-16, -1.000000000000000000 ) ) ;
#303 = PLANE ( 'NONE',  #86 ) ;
#304 = CARTESIAN_POINT ( 'NONE',  ( 3.421651712066271319E-14, -1.166206390548428260E-15, 9.800000000000002487 ) ) ;
#305 = CARTESIAN_POINT ( 'NONE',  ( 1.326762908760390423E-13, -4.653657836759941941E-15, 38.00000000000000000 ) ) ;
#306 = CARTESIAN_POINT ( 'NONE',  ( -2.779363672356821459E-31, 9.748695452417935421E-33, -7.960413940742226547E-17 ) ) ;
#307 = AXIS2_PLACEMENT_3D ( 'NONE', #16, #237, #14 ) ;
#308 = DIRECTION ( 'NONE',  ( 4.275831445896958607E-31, 1.000000000000000000, 1.224646799147353207E-16 ) ) ;
#309 = VERTEX_POINT ( 'NONE', #288 ) ;
#310 = CIRCLE ( 'NONE', #56, 1.599999999999997646 ) ;
#311 = DATE_TIME_ROLE ( 'creation_date' ) ;
#312 = VERTEX_POINT ( 'NONE', #166 ) ;
#313 = VERTEX_POINT ( 'NONE', #190 ) ;
#314 = COORDINATED_UNIVERSAL_TIME_OFFSET ( 1, 0, .AHEAD. ) ;
#315 = DATE_TIME_ROLE ( 'classification_date' ) ;
#316 = LOCAL_TIME ( 11, 25, 56.00000000000000000, #261 ) ;
#317 = ORIENTED_EDGE ( 'NONE', *, *, #93, .T. ) ;
#318 = APPROVAL_STATUS ( 'not_yet_approved' ) ;
#319 = EDGE_CURVE ( 'NONE', #313, #313, #253, .T. ) ;
#320 = CARTESIAN_POINT ( 'NONE',  ( 1.047444401652940007E-14, -3.673940397442059868E-16, 3.000000000000000000 ) ) ;
#321 = AXIS2_PLACEMENT_3D ( 'NONE', #204, #225, #37 ) ;
#322 = EDGE_LOOP ( 'NONE', ( #244 ) ) ;
#323 = ADVANCED_FACE ( 'NONE', ( #284, #67 ), #188, .T. ) ;
ENDSEC;
END-ISO-10303-21;
