ISO-10303-21;
HEADER;
FILE_DESCRIPTION (( 'STEP AP203' ),
    '1' );
FILE_NAME ('388807.step',
    '2021-12-13T10:25:56',
    ( '' ),
    ( '' ),
    'SwSTEP 2.0',
    'SolidWorks 2019',
    '' );
FILE_SCHEMA (( 'CONFIG_CONTROL_DESIGN' ));
ENDSEC;

DATA;
#1 = DIRECTION ( 'NONE',  ( -4.275831445896958607E-31, -1.000000000000000000, -1.224646799147353207E-16 ) ) ;
#2 = PERSON_AND_ORGANIZATION ( #52, #148 ) ;
#3 = DIRECTION ( 'NONE',  ( 0.0000000000000000000, 1.000000000000000000, 0.0000000000000000000 ) ) ;
#4 = DATE_AND_TIME ( #163, #175 ) ;
#5 = EDGE_CURVE ( 'NONE', #179, #179, #206, .T. ) ;
#6 = FACE_OUTER_BOUND ( 'NONE', #207, .T. ) ;
#7 = CARTESIAN_POINT ( 'NONE',  ( 2.859785213319025394E-14, -1.003077624610905556E-15, 8.190750388677676241 ) ) ;
#8 = DIRECTION ( 'NONE',  ( -3.491481338843133355E-15, 1.224646799147353207E-16, -1.000000000000000000 ) ) ;
#9 = LOCAL_TIME ( 11, 25, 56.00000000000000000, #136 ) ;
#10 = DIRECTION ( 'NONE',  ( 4.275831445896958607E-31, 1.000000000000000000, 1.224646799147353207E-16 ) ) ;
#11 = CYLINDRICAL_SURFACE ( 'NONE', #12, 0.6500000000000000222 ) ;
#12 = AXIS2_PLACEMENT_3D ( 'NONE', #100, #94, #10 ) ;
#13 = CARTESIAN_POINT ( 'NONE',  ( 1.326762908760390423E-13, -4.653657836759941941E-15, 38.00000000000000000 ) ) ;
#14 = EDGE_CURVE ( 'NONE', #259, #259, #49, .T. ) ;
#15 = EDGE_LOOP ( 'NONE', ( #264 ) ) ;
#16 = MANIFOLD_SOLID_BREP ( 'Corps-Déplacer/Copier1[1]', #154 ) ;
#17 = FACE_OUTER_BOUND ( 'NONE', #73, .T. ) ;
#18 = PLANE ( 'NONE',  #289 ) ;
#19 = CC_DESIGN_PERSON_AND_ORGANIZATION_ASSIGNMENT ( #313, #241, ( #172 ) ) ;
#20 =( GEOMETRIC_REPRESENTATION_CONTEXT ( 3 ) GLOBAL_UNCERTAINTY_ASSIGNED_CONTEXT ( ( #197 ) ) GLOBAL_UNIT_ASSIGNED_CONTEXT ( ( #50, #75, #71 ) ) REPRESENTATION_CONTEXT ( 'NONE', 'WORKASPACE' ) );
#21 = EDGE_LOOP ( 'NONE', ( #333 ) ) ;
#22 = VERTEX_POINT ( 'NONE', #287 ) ;
#23 = EDGE_LOOP ( 'NONE', ( #190 ) ) ;
#24 = DIRECTION ( 'NONE',  ( 0.0000000000000000000, 1.000000000000000000, 0.0000000000000000000 ) ) ;
#25 = AXIS2_PLACEMENT_3D ( 'NONE', #86, #142, #328 ) ;
#26 = COORDINATED_UNIVERSAL_TIME_OFFSET ( 1, 0, .AHEAD. ) ;
#27 = DIRECTION ( 'NONE',  ( -3.491481338843133355E-15, 1.224646799147353207E-16, -1.000000000000000000 ) ) ;
#28 = PERSON_AND_ORGANIZATION_ROLE ( 'design_supplier' ) ;
#29 = DIRECTION ( 'NONE',  ( 0.0000000000000000000, 1.000000000000000000, 0.0000000000000000000 ) ) ;
#30 = APPROVAL_ROLE ( '' ) ;
#31 = CARTESIAN_POINT ( 'NONE',  ( 1.326762908760390423E-13, -4.653657836759941941E-15, 38.00000000000000000 ) ) ;
#32 = EDGE_CURVE ( 'NONE', #279, #279, #337, .T. ) ;
#33 = PLANE ( 'NONE',  #72 ) ;
#34 = DIRECTION ( 'NONE',  ( 4.275831445896959482E-31, 1.000000000000000000, 1.224646799147353454E-16 ) ) ;
#35 = DIRECTION ( 'NONE',  ( 3.491481338843133355E-15, -1.224646799147353207E-16, 1.000000000000000000 ) ) ;
#36 = ADVANCED_FACE ( 'NONE', ( #17 ), #18, .F. ) ;
#37 = CARTESIAN_POINT ( 'NONE',  ( 1.312796983405018142E-13, 1.999999999999993117, 37.60000000000000142 ) ) ;
#38 = AXIS2_PLACEMENT_3D ( 'NONE', #7, #91, #115 ) ;
#39 = DIRECTION ( 'NONE',  ( 0.0000000000000000000, 1.000000000000000000, 0.0000000000000000000 ) ) ;
#40 = CARTESIAN_POINT ( 'NONE',  ( 9.776147748760773395E-15, 4.874219293651031067E-33, 2.799999999999999822 ) ) ;
#41 = AXIS2_PLACEMENT_3D ( 'NONE', #131, #46, #161 ) ;
#42 = AXIS2_PLACEMENT_3D ( 'NONE', #13, #101, #39 ) ;
#43 = APPLICATION_PROTOCOL_DEFINITION ( 'international standard', 'config_control_design', 1994, #126 ) ;
#44 = DATE_AND_TIME ( #182, #236 ) ;
#45 = CC_DESIGN_DATE_AND_TIME_ASSIGNMENT ( #170, #324, ( #74 ) ) ;
#46 = DIRECTION ( 'NONE',  ( -3.491481338843133355E-15, 1.224646799147353207E-16, -1.000000000000000000 ) ) ;
#47 = PERSON_AND_ORGANIZATION ( #52, #148 ) ;
#48 = DIRECTION ( 'NONE',  ( 0.0000000000000000000, 1.000000000000000000, 0.0000000000000000000 ) ) ;
#49 = CIRCLE ( 'NONE', #240, 0.7073459598715515773 ) ;
#50 =( LENGTH_UNIT ( ) NAMED_UNIT ( * ) SI_UNIT ( .MILLI., .METRE. ) );
#51 = EDGE_LOOP ( 'NONE', ( #237 ) ) ;
#52 = PERSON ( 'UNSPECIFIED', 'UNSPECIFIED', 'UNSPECIFIED', ('UNSPECIFIED'), ('UNSPECIFIED'), ('UNSPECIFIED') ) ;
#53 = ORIENTED_EDGE ( 'NONE', *, *, #70, .T. ) ;
#54 = EDGE_CURVE ( 'NONE', #278, #278, #81, .T. ) ;
#55 = ORIENTED_EDGE ( 'NONE', *, *, #32, .F. ) ;
#56 = CIRCLE ( 'NONE', #276, 1.599999999999997646 ) ;
#57 = CALENDAR_DATE ( 2021, 13, 12 ) ;
#58 = DIRECTION ( 'NONE',  ( 0.0000000000000000000, 1.000000000000000000, 0.0000000000000000000 ) ) ;
#59 = FACE_OUTER_BOUND ( 'NONE', #317, .T. ) ;
#60 = APPLICATION_CONTEXT ( 'configuration controlled 3d designs of mechanical parts and assemblies' ) ;
#61 = FACE_OUTER_BOUND ( 'NONE', #340, .T. ) ;
#62 = AXIS2_PLACEMENT_3D ( 'NONE', #323, #27, #65 ) ;
#63 = CONICAL_SURFACE ( 'NONE', #83, 0.7073459598715515773, 0.2094395102393111219 ) ;
#64 = PERSON_AND_ORGANIZATION ( #52, #148 ) ;
#65 = DIRECTION ( 'NONE',  ( 4.332939605903968399E-31, 1.000000000000000000, 1.224646799147353207E-16 ) ) ;
#66 = FACE_OUTER_BOUND ( 'NONE', #183, .T. ) ;
#67 = CARTESIAN_POINT ( 'NONE',  ( 1.529268826413292347E-14, 0.7073459598715510221, 4.379999999999999893 ) ) ;
#68 = DIRECTION ( 'NONE',  ( -4.275831445896958607E-31, -1.000000000000000000, -1.224646799147353207E-16 ) ) ;
#69 = ORIENTED_EDGE ( 'NONE', *, *, #5, .F. ) ;
#70 = EDGE_CURVE ( 'NONE', #144, #144, #122, .T. ) ;
#71 =( NAMED_UNIT ( * ) SI_UNIT ( $, .STERADIAN. ) SOLID_ANGLE_UNIT ( ) );
#72 = AXIS2_PLACEMENT_3D ( 'NONE', #196, #253, #251 ) ;
#73 = EDGE_LOOP ( 'NONE', ( #291 ) ) ;
#74 = PRODUCT_DEFINITION ( 'UNKNOWN', '', #270, #298 ) ;
#75 =( NAMED_UNIT ( * ) PLANE_ANGLE_UNIT ( ) SI_UNIT ( $, .RADIAN. ) );
#76 = EDGE_LOOP ( 'NONE', ( #233 ) ) ;
#77 = COORDINATED_UNIVERSAL_TIME_OFFSET ( 1, 0, .AHEAD. ) ;
#78 = DIRECTION ( 'NONE',  ( 3.491481338843133355E-15, -1.224646799147353207E-16, 1.000000000000000000 ) ) ;
#79 = CARTESIAN_POINT ( 'NONE',  ( 3.421651712066271319E-14, 1.959999999999998632, 9.800000000000000711 ) ) ;
#80 = ORIENTED_EDGE ( 'NONE', *, *, #199, .T. ) ;
#81 = CIRCLE ( 'NONE', #275, 1.999999999999997780 ) ;
#82 = CIRCLE ( 'NONE', #242, 0.6499999999999999112 ) ;
#83 = AXIS2_PLACEMENT_3D ( 'NONE', #208, #174, #334 ) ;
#84 = CARTESIAN_POINT ( 'NONE',  ( 1.529268826413292347E-14, -5.363952980265407496E-16, 4.379999999999999893 ) ) ;
#85 = PERSON_AND_ORGANIZATION_ROLE ( 'creator' ) ;
#86 = CARTESIAN_POINT ( 'NONE',  ( 2.859785213319025394E-14, -1.003077624610905556E-15, 8.190750388677676241 ) ) ;
#87 = AXIS2_PLACEMENT_3D ( 'NONE', #176, #97, #281 ) ;
#88 = ADVANCED_FACE ( 'NONE', ( #109, #61 ), #33, .F. ) ;
#89 = DIRECTION ( 'NONE',  ( 4.275831445896958607E-31, 1.000000000000000000, 1.224646799147353207E-16 ) ) ;
#90 = PERSON_AND_ORGANIZATION_ROLE ( 'classification_officer' ) ;
#91 = DIRECTION ( 'NONE',  ( -3.491481338843133355E-15, 1.224646799147353207E-16, -1.000000000000000000 ) ) ;
#92 = DIRECTION ( 'NONE',  ( -4.275831445896958607E-31, -1.000000000000000000, -1.224646799147353207E-16 ) ) ;
#93 = FACE_OUTER_BOUND ( 'NONE', #331, .T. ) ;
#94 = DIRECTION ( 'NONE',  ( -3.491481338843133355E-15, 1.224646799147353207E-16, -1.000000000000000000 ) ) ;
#95 = PLANE ( 'NONE',  #194 ) ;
#96 = ORIENTED_EDGE ( 'NONE', *, *, #156, .F. ) ;
#97 = DIRECTION ( 'NONE',  ( -3.491481338843133355E-15, 1.224646799147353207E-16, -1.000000000000000000 ) ) ;
#98 = APPROVAL ( #210, 'UNSPECIFIED' ) ;
#99 = ORIENTED_EDGE ( 'NONE', *, *, #14, .T. ) ;
#100 = CARTESIAN_POINT ( 'NONE',  ( 0.0000000000000000000, 0.0000000000000000000, 0.0000000000000000000 ) ) ;
#101 = DIRECTION ( 'NONE',  ( -3.491481338843133355E-15, 1.224646799147353207E-16, -1.000000000000000000 ) ) ;
#102 = APPROVAL_ROLE ( '' ) ;
#103 = AXIS2_PLACEMENT_3D ( 'NONE', #116, #137, #248 ) ;
#104 = CARTESIAN_POINT ( 'NONE',  ( 1.312796983405018142E-13, -4.604671964794047724E-15, 37.60000000000000142 ) ) ;
#105 = ADVANCED_FACE ( 'NONE', ( #217, #299 ), #268, .F. ) ;
#106 = EDGE_LOOP ( 'NONE', ( #315 ) ) ;
#107 = MECHANICAL_CONTEXT ( 'NONE', #126, 'mechanical' ) ;
#108 = DATE_AND_TIME ( #57, #280 ) ;
#109 = FACE_BOUND ( 'NONE', #214, .T. ) ;
#110 = EDGE_CURVE ( 'NONE', #312, #312, #133, .T. ) ;
#111 = CC_DESIGN_SECURITY_CLASSIFICATION ( #162, ( #270 ) ) ;
#112 = PERSON_AND_ORGANIZATION ( #52, #148 ) ;
#113 = PLANE ( 'NONE',  #290 ) ;
#114 = APPROVAL_DATE_TIME ( #272, #138 ) ;
#115 = DIRECTION ( 'NONE',  ( 0.0000000000000000000, 1.000000000000000000, 0.0000000000000000000 ) ) ;
#116 = CARTESIAN_POINT ( 'NONE',  ( 1.326762908760390423E-13, 1.199807826129477602E-32, 38.00000000000000000 ) ) ;
#117 = CC_DESIGN_APPROVAL ( #98, ( #74 ) ) ;
#118 = CARTESIAN_POINT ( 'NONE',  ( 0.0000000000000000000, 0.0000000000000000000, 0.0000000000000000000 ) ) ;
#119 = FACE_BOUND ( 'NONE', #157, .T. ) ;
#120 = ADVANCED_FACE ( 'NONE', ( #164, #59 ), #274, .T. ) ;
#121 = DIRECTION ( 'NONE',  ( -3.491481338843133355E-15, 1.224646799147353207E-16, -1.000000000000000000 ) ) ;
#122 = CIRCLE ( 'NONE', #168, 0.6499999999999999112 ) ;
#123 = AXIS2_PLACEMENT_3D ( 'NONE', #232, #308, #204 ) ;
#124 = DIRECTION ( 'NONE',  ( 0.0000000000000000000, 1.000000000000000000, 0.0000000000000000000 ) ) ;
#125 = EDGE_LOOP ( 'NONE', ( #227 ) ) ;
#126 = APPLICATION_CONTEXT ( 'configuration controlled 3d designs of mechanical parts and assemblies' ) ;
#127 = APPLICATION_PROTOCOL_DEFINITION ( 'international standard', 'config_control_design', 1994, #60 ) ;
#128 = CARTESIAN_POINT ( 'NONE',  ( -1.282786050030986501E-31, 4.499407780543503309E-33, -3.674045270584275034E-17 ) ) ;
#129 = VERTEX_POINT ( 'NONE', #181 ) ;
#130 = CARTESIAN_POINT ( 'NONE',  ( 9.776147748760773395E-15, -3.429011037612588783E-16, 2.799999999999999822 ) ) ;
#131 = CARTESIAN_POINT ( 'NONE',  ( 1.506861679872323068E-14, -5.285359290005226489E-16, 4.315823381635504497 ) ) ;
#132 = CARTESIAN_POINT ( 'NONE',  ( 0.0000000000000000000, 0.0000000000000000000, 0.0000000000000000000 ) ) ;
#133 = CIRCLE ( 'NONE', #327, 1.959999999999999964 ) ;
#134 = AXIS2_PLACEMENT_3D ( 'NONE', #302, #258, #124 ) ;
#135 = MANIFOLD_SOLID_BREP ( 'Corps-Déplacer/Copier1[2]', #187 ) ;
#136 = COORDINATED_UNIVERSAL_TIME_OFFSET ( 1, 0, .AHEAD. ) ;
#137 = DIRECTION ( 'NONE',  ( -3.491481338843133355E-15, 1.224646799147353207E-16, -1.000000000000000000 ) ) ;
#138 = APPROVAL ( #319, 'UNSPECIFIED' ) ;
#139 = FACE_OUTER_BOUND ( 'NONE', #76, .T. ) ;
#140 = PLANE ( 'NONE',  #249 ) ;
#141 = FACE_OUTER_BOUND ( 'NONE', #153, .T. ) ;
#142 = DIRECTION ( 'NONE',  ( 3.491481338843133355E-15, -1.224646799147353207E-16, 1.000000000000000000 ) ) ;
#143 = CIRCLE ( 'NONE', #134, 1.149999999999999911 ) ;
#144 = VERTEX_POINT ( 'NONE', #255 ) ;
#145 = ADVANCED_FACE ( 'NONE', ( #6 ), #296, .F. ) ;
#146 = DIRECTION ( 'NONE',  ( 0.0000000000000000000, 1.000000000000000000, 0.0000000000000000000 ) ) ;
#147 = FACE_BOUND ( 'NONE', #15, .T. ) ;
#148 = ORGANIZATION ( 'UNSPECIFIED', 'UNSPECIFIED', '' ) ;
#149 = CARTESIAN_POINT ( 'NONE',  ( 1.506861679872323068E-14, 0.6937047985323850918, 4.315823381635504497 ) ) ;
#150 = CARTESIAN_POINT ( 'NONE',  ( 9.776147748760773395E-15, 0.6499999999999995781, 2.799999999999999822 ) ) ;
#151 = CC_DESIGN_PERSON_AND_ORGANIZATION_ASSIGNMENT ( #64, #28, ( #270 ) ) ;
#152 = CARTESIAN_POINT ( 'NONE',  ( 2.859785213319025394E-14, 1.959999999999998632, 8.190750388677676241 ) ) ;
#153 = EDGE_LOOP ( 'NONE', ( #55 ) ) ;
#154 = CLOSED_SHELL ( 'NONE', ( #185, #295, #105, #300, #160, #215, #120, #88, #211, #273, #145 ) ) ;
#155 = DIRECTION ( 'NONE',  ( -3.491481338843133355E-15, 1.224646799147353207E-16, -1.000000000000000000 ) ) ;
#156 = EDGE_CURVE ( 'NONE', #22, #22, #56, .T. ) ;
#157 = EDGE_LOOP ( 'NONE', ( #69 ) ) ;
#158 = CARTESIAN_POINT ( 'NONE',  ( 1.361677722148822009E-14, 0.6499999999999995781, 3.899999999999999911 ) ) ;
#159 = DIRECTION ( 'NONE',  ( 0.0000000000000000000, 1.000000000000000000, 0.0000000000000000000 ) ) ;
#160 = ADVANCED_FACE ( 'NONE', ( #216, #165 ), #140, .F. ) ;
#161 = DIRECTION ( 'NONE',  ( 0.0000000000000000000, 1.000000000000000000, 0.0000000000000000000 ) ) ;
#162 = SECURITY_CLASSIFICATION ( '', '', #250 ) ;
#163 = CALENDAR_DATE ( 2021, 13, 12 ) ;
#164 = FACE_OUTER_BOUND ( 'NONE', #192, .T. ) ;
#165 = FACE_OUTER_BOUND ( 'NONE', #263, .T. ) ;
#166 = CALENDAR_DATE ( 2021, 13, 12 ) ;
#167 = DIRECTION ( 'NONE',  ( -3.491481338843133355E-15, 1.224646799147353207E-16, -1.000000000000000000 ) ) ;
#168 = AXIS2_PLACEMENT_3D ( 'NONE', #130, #271, #29 ) ;
#169 = CONICAL_SURFACE ( 'NONE', #42, 1.599999999999997646, 0.7853981633974516097 ) ;
#170 = DATE_AND_TIME ( #269, #254 ) ;
#171 = DIRECTION ( 'NONE',  ( -3.491481338843133355E-15, 1.224646799147353207E-16, -1.000000000000000000 ) ) ;
#172 = PRODUCT ( '388807', '388807', '', ( #107 ) ) ;
#173 = CARTESIAN_POINT ( 'NONE',  ( 3.421651712066271319E-14, 1.999999999999995337, 9.800000000000000711 ) ) ;
#174 = DIRECTION ( 'NONE',  ( 3.491481338843133355E-15, -1.224646799147353207E-16, 1.000000000000000000 ) ) ;
#175 = LOCAL_TIME ( 11, 25, 56.00000000000000000, #26 ) ;
#176 = CARTESIAN_POINT ( 'NONE',  ( -2.565572100061973003E-31, 8.998815561087006617E-33, -7.348090541168550067E-17 ) ) ;
#177 = CYLINDRICAL_SURFACE ( 'NONE', #305, 0.6499999999999998002 ) ;
#178 = ORIENTED_EDGE ( 'NONE', *, *, #70, .F. ) ;
#179 = VERTEX_POINT ( 'NONE', #149 ) ;
#180 = APPROVAL_PERSON_ORGANIZATION ( #335, #98, #102 ) ;
#181 = CARTESIAN_POINT ( 'NONE',  ( 2.137183397710479182E-32, 0.6499999999999995781, 6.121136532892404794E-18 ) ) ;
#182 = CALENDAR_DATE ( 2021, 13, 12 ) ;
#183 = EDGE_LOOP ( 'NONE', ( #80 ) ) ;
#184 = PERSON_AND_ORGANIZATION_ROLE ( 'creator' ) ;
#185 = ADVANCED_FACE ( 'NONE', ( #139 ), #113, .F. ) ;
#186 = EDGE_LOOP ( 'NONE', ( #99 ) ) ;
#187 = CLOSED_SHELL ( 'NONE', ( #36, #219, #231 ) ) ;
#188 = VERTEX_POINT ( 'NONE', #150 ) ;
#189 = CONICAL_SURFACE ( 'NONE', #25, 1.959999999999999520, 0.2094395102393125929 ) ;
#190 = ORIENTED_EDGE ( 'NONE', *, *, #343, .F. ) ;
#191 = APPROVAL_DATE_TIME ( #108, #318 ) ;
#192 = EDGE_LOOP ( 'NONE', ( #256 ) ) ;
#193 = AXIS2_PLACEMENT_3D ( 'NONE', #301, #221, #89 ) ;
#194 = AXIS2_PLACEMENT_3D ( 'NONE', #40, #35, #68 ) ;
#195 = PERSON_AND_ORGANIZATION ( #52, #148 ) ;
#196 = CARTESIAN_POINT ( 'NONE',  ( 3.421651712066271319E-14, 2.969524369670473466E-32, 9.800000000000000711 ) ) ;
#197 = UNCERTAINTY_MEASURE_WITH_UNIT (LENGTH_MEASURE( 1.000000000000000082E-05 ), #50, 'distance_accuracy_value', 'NONE');
#198 = CYLINDRICAL_SURFACE ( 'NONE', #230, 1.999999999999997335 ) ;
#199 = EDGE_CURVE ( 'NONE', #266, #266, #224, .T. ) ;
#200 = PERSON_AND_ORGANIZATION ( #52, #148 ) ;
#201 = DIRECTION ( 'NONE',  ( 3.491481338843133355E-15, -1.224646799147353207E-16, 1.000000000000000000 ) ) ;
#202 = CARTESIAN_POINT ( 'NONE',  ( 3.421651712066271319E-14, -1.200153863164406345E-15, 9.800000000000000711 ) ) ;
#203 = CC_DESIGN_DATE_AND_TIME_ASSIGNMENT ( #4, #321, ( #162 ) ) ;
#204 = DIRECTION ( 'NONE',  ( 0.0000000000000000000, 1.000000000000000000, 0.0000000000000000000 ) ) ;
#205 = ORIENTED_EDGE ( 'NONE', *, *, #14, .F. ) ;
#206 = CIRCLE ( 'NONE', #41, 0.6937047985323856469 ) ;
#207 = EDGE_LOOP ( 'NONE', ( #96 ) ) ;
#208 = CARTESIAN_POINT ( 'NONE',  ( 1.529268826413292347E-14, -5.363952980265407496E-16, 4.379999999999999893 ) ) ;
#209 = CC_DESIGN_APPROVAL ( #138, ( #162 ) ) ;
#210 = APPROVAL_STATUS ( 'not_yet_approved' ) ;
#211 = ADVANCED_FACE ( 'NONE', ( #141, #326 ), #198, .T. ) ;
#212 = VERTEX_POINT ( 'NONE', #292 ) ;
#213 = DIRECTION ( 'NONE',  ( -3.491481338843133355E-15, 1.224646799147353207E-16, -1.000000000000000000 ) ) ;
#214 = EDGE_LOOP ( 'NONE', ( #226 ) ) ;
#215 = ADVANCED_FACE ( 'NONE', ( #320, #66 ), #189, .T. ) ;
#216 = FACE_BOUND ( 'NONE', #307, .T. ) ;
#217 = FACE_OUTER_BOUND ( 'NONE', #125, .T. ) ;
#218 = APPROVAL_PERSON_ORGANIZATION ( #195, #138, #316 ) ;
#219 = ADVANCED_FACE ( 'NONE', ( #93, #244 ), #177, .T. ) ;
#220 = CARTESIAN_POINT ( 'NONE',  ( 9.776147748760773395E-15, 4.874219293651031067E-33, 2.799999999999999822 ) ) ;
#221 = DIRECTION ( 'NONE',  ( -3.491481338843133355E-15, 1.224646799147353207E-16, -1.000000000000000000 ) ) ;
#222 = CARTESIAN_POINT ( 'NONE',  ( 1.529268826413292347E-14, 1.392786386552418292E-32, 4.379999999999999893 ) ) ;
#223 = EDGE_CURVE ( 'NONE', #129, #129, #283, .T. ) ;
#224 = CIRCLE ( 'NONE', #38, 1.959999999999999520 ) ;
#225 = CARTESIAN_POINT ( 'NONE',  ( 9.776147748760773395E-15, -3.429011037612588783E-16, 2.799999999999999822 ) ) ;
#226 = ORIENTED_EDGE ( 'NONE', *, *, #110, .F. ) ;
#227 = ORIENTED_EDGE ( 'NONE', *, *, #5, .T. ) ;
#228 = AXIS2_PLACEMENT_3D ( 'NONE', #288, #267, #24 ) ;
#229 = CIRCLE ( 'NONE', #123, 0.6500000000000000222 ) ;
#230 = AXIS2_PLACEMENT_3D ( 'NONE', #297, #277, #34 ) ;
#231 = ADVANCED_FACE ( 'NONE', ( #306 ), #95, .T. ) ;
#232 = CARTESIAN_POINT ( 'NONE',  ( 1.361677722148822009E-14, -4.776122516674677286E-16, 3.899999999999999911 ) ) ;
#233 = ORIENTED_EDGE ( 'NONE', *, *, #284, .T. ) ;
#234 = EDGE_LOOP ( 'NONE', ( #336 ) ) ;
#235 = EDGE_CURVE ( 'NONE', #212, #212, #143, .T. ) ;
#236 = LOCAL_TIME ( 11, 25, 56.00000000000000000, #77 ) ;
#237 = ORIENTED_EDGE ( 'NONE', *, *, #284, .F. ) ;
#238 = VERTEX_POINT ( 'NONE', #158 ) ;
#239 = ORIENTED_EDGE ( 'NONE', *, *, #32, .T. ) ;
#240 = AXIS2_PLACEMENT_3D ( 'NONE', #84, #155, #159 ) ;
#241 = PERSON_AND_ORGANIZATION_ROLE ( 'design_owner' ) ;
#242 = AXIS2_PLACEMENT_3D ( 'NONE', #225, #121, #146 ) ;
#243 = PRODUCT_RELATED_PRODUCT_CATEGORY ( 'detail', '', ( #172 ) ) ;
#244 = FACE_OUTER_BOUND ( 'NONE', #304, .T. ) ;
#245 = SHAPE_DEFINITION_REPRESENTATION ( #257, #285 ) ;
#246 = CC_DESIGN_PERSON_AND_ORGANIZATION_ASSIGNMENT ( #112, #90, ( #162 ) ) ;
#247 = COORDINATED_UNIVERSAL_TIME_OFFSET ( 1, 0, .AHEAD. ) ;
#248 = DIRECTION ( 'NONE',  ( 4.275831445896958607E-31, 1.000000000000000000, 1.224646799147353207E-16 ) ) ;
#249 = AXIS2_PLACEMENT_3D ( 'NONE', #222, #201, #92 ) ;
#250 = SECURITY_CLASSIFICATION_LEVEL ( 'unclassified' ) ;
#251 = DIRECTION ( 'NONE',  ( -4.275831445896958607E-31, -1.000000000000000000, -1.224646799147353207E-16 ) ) ;
#252 = APPROVAL_STATUS ( 'not_yet_approved' ) ;
#253 = DIRECTION ( 'NONE',  ( 3.491481338843133355E-15, -1.224646799147353207E-16, 1.000000000000000000 ) ) ;
#254 = LOCAL_TIME ( 11, 25, 56.00000000000000000, #293 ) ;
#255 = CARTESIAN_POINT ( 'NONE',  ( 9.776147748760773395E-15, 0.6499999999999995781, 2.799999999999999822 ) ) ;
#256 = ORIENTED_EDGE ( 'NONE', *, *, #199, .F. ) ;
#257 = PRODUCT_DEFINITION_SHAPE ( 'NONE', 'NONE',  #74 ) ;
#258 = DIRECTION ( 'NONE',  ( -3.491481338843133355E-15, 1.224646799147353207E-16, -1.000000000000000000 ) ) ;
#259 = VERTEX_POINT ( 'NONE', #67 ) ;
#260 = ORIENTED_EDGE ( 'NONE', *, *, #223, .F. ) ;
#261 = CC_DESIGN_PERSON_AND_ORGANIZATION_ASSIGNMENT ( #47, #184, ( #74 ) ) ;
#262 = APPROVAL_DATE_TIME ( #44, #98 ) ;
#263 = EDGE_LOOP ( 'NONE', ( #265 ) ) ;
#264 = ORIENTED_EDGE ( 'NONE', *, *, #156, .T. ) ;
#265 = ORIENTED_EDGE ( 'NONE', *, *, #235, .T. ) ;
#266 = VERTEX_POINT ( 'NONE', #152 ) ;
#267 = DIRECTION ( 'NONE',  ( -3.491481338843133355E-15, 1.224646799147353207E-16, -1.000000000000000000 ) ) ;
#268 = TOROIDAL_SURFACE ( 'NONE', #62, 2.649999999999999911, 2.000000000000000000 ) ;
#269 = CALENDAR_DATE ( 2021, 13, 12 ) ;
#270 = PRODUCT_DEFINITION_FORMATION_WITH_SPECIFIED_SOURCE ( 'ANY', '', #172, .NOT_KNOWN. ) ;
#271 = DIRECTION ( 'NONE',  ( -3.491481338843133355E-15, 1.224646799147353207E-16, -1.000000000000000000 ) ) ;
#272 = DATE_AND_TIME ( #166, #9 ) ;
#273 = ADVANCED_FACE ( 'NONE', ( #282, #147 ), #169, .T. ) ;
#274 = CYLINDRICAL_SURFACE ( 'NONE', #193, 1.959999999999999964 ) ;
#275 = AXIS2_PLACEMENT_3D ( 'NONE', #104, #213, #48 ) ;
#276 = AXIS2_PLACEMENT_3D ( 'NONE', #31, #167, #3 ) ;
#277 = DIRECTION ( 'NONE',  ( -3.491481338843133355E-15, 1.224646799147353207E-16, -1.000000000000000000 ) ) ;
#278 = VERTEX_POINT ( 'NONE', #37 ) ;
#279 = VERTEX_POINT ( 'NONE', #173 ) ;
#280 = LOCAL_TIME ( 11, 25, 56.00000000000000000, #247 ) ;
#281 = DIRECTION ( 'NONE',  ( 4.275831445896958607E-31, 1.000000000000000000, 1.224646799147353207E-16 ) ) ;
#282 = FACE_OUTER_BOUND ( 'NONE', #341, .T. ) ;
#283 = CIRCLE ( 'NONE', #87, 0.6499999999999995781 ) ;
#284 = EDGE_CURVE ( 'NONE', #188, #188, #82, .T. ) ;
#285 = ADVANCED_BREP_SHAPE_REPRESENTATION ( '388807', ( #16, #135, #338 ), #20 ) ;
#286 = DIRECTION ( 'NONE',  ( 1.000000000000000000, 0.0000000000000000000, 0.0000000000000000000 ) ) ;
#287 = CARTESIAN_POINT ( 'NONE',  ( 1.326762908760390423E-13, 1.599999999999993205, 38.00000000000000000 ) ) ;
#288 = CARTESIAN_POINT ( 'NONE',  ( 3.421651712066271319E-14, -1.200153863164406345E-15, 9.800000000000000711 ) ) ;
#289 = AXIS2_PLACEMENT_3D ( 'NONE', #128, #78, #339 ) ;
#290 = AXIS2_PLACEMENT_3D ( 'NONE', #220, #325, #1 ) ;
#291 = ORIENTED_EDGE ( 'NONE', *, *, #223, .T. ) ;
#292 = CARTESIAN_POINT ( 'NONE',  ( 1.529268826413292662E-14, 1.149999999999999467, 4.380000000000000782 ) ) ;
#293 = COORDINATED_UNIVERSAL_TIME_OFFSET ( 1, 0, .AHEAD. ) ;
#294 = ORIENTED_EDGE ( 'NONE', *, *, #110, .T. ) ;
#295 = ADVANCED_FACE ( 'NONE', ( #309, #329 ), #11, .T. ) ;
#296 = PLANE ( 'NONE',  #103 ) ;
#297 = CARTESIAN_POINT ( 'NONE',  ( 0.0000000000000000000, 0.0000000000000000000, 0.0000000000000000000 ) ) ;
#298 = DESIGN_CONTEXT ( 'detailed design', #60, 'design' ) ;
#299 = FACE_OUTER_BOUND ( 'NONE', #23, .T. ) ;
#300 = ADVANCED_FACE ( 'NONE', ( #119, #330 ), #63, .T. ) ;
#301 = CARTESIAN_POINT ( 'NONE',  ( 0.0000000000000000000, 0.0000000000000000000, 0.0000000000000000000 ) ) ;
#302 = CARTESIAN_POINT ( 'NONE',  ( 1.529268826413292662E-14, -5.363952980265408482E-16, 4.380000000000000782 ) ) ;
#303 = CC_DESIGN_PERSON_AND_ORGANIZATION_ASSIGNMENT ( #200, #85, ( #270 ) ) ;
#304 = EDGE_LOOP ( 'NONE', ( #53 ) ) ;
#305 = AXIS2_PLACEMENT_3D ( 'NONE', #118, #8, #332 ) ;
#306 = FACE_OUTER_BOUND ( 'NONE', #310, .T. ) ;
#307 = EDGE_LOOP ( 'NONE', ( #205 ) ) ;
#308 = DIRECTION ( 'NONE',  ( -3.491481338843133355E-15, 1.224646799147353207E-16, -1.000000000000000000 ) ) ;
#309 = FACE_OUTER_BOUND ( 'NONE', #51, .T. ) ;
#310 = EDGE_LOOP ( 'NONE', ( #178 ) ) ;
#311 = APPROVAL_PERSON_ORGANIZATION ( #2, #318, #30 ) ;
#312 = VERTEX_POINT ( 'NONE', #79 ) ;
#313 = PERSON_AND_ORGANIZATION ( #52, #148 ) ;
#314 = ORIENTED_EDGE ( 'NONE', *, *, #54, .F. ) ;
#315 = ORIENTED_EDGE ( 'NONE', *, *, #54, .T. ) ;
#316 = APPROVAL_ROLE ( '' ) ;
#317 = EDGE_LOOP ( 'NONE', ( #294 ) ) ;
#318 = APPROVAL ( #252, 'UNSPECIFIED' ) ;
#319 = APPROVAL_STATUS ( 'not_yet_approved' ) ;
#320 = FACE_BOUND ( 'NONE', #234, .T. ) ;
#321 = DATE_TIME_ROLE ( 'classification_date' ) ;
#322 = CC_DESIGN_APPROVAL ( #318, ( #270 ) ) ;
#323 = CARTESIAN_POINT ( 'NONE',  ( 1.361677722148821851E-14, -4.336808689942017736E-16, 3.899999999999999467 ) ) ;
#324 = DATE_TIME_ROLE ( 'creation_date' ) ;
#325 = DIRECTION ( 'NONE',  ( 3.491481338843133355E-15, -1.224646799147353207E-16, 1.000000000000000000 ) ) ;
#326 = FACE_OUTER_BOUND ( 'NONE', #106, .T. ) ;
#327 = AXIS2_PLACEMENT_3D ( 'NONE', #202, #171, #58 ) ;
#328 = DIRECTION ( 'NONE',  ( 0.0000000000000000000, -1.000000000000000000, 0.0000000000000000000 ) ) ;
#329 = FACE_OUTER_BOUND ( 'NONE', #21, .T. ) ;
#330 = FACE_OUTER_BOUND ( 'NONE', #186, .T. ) ;
#331 = EDGE_LOOP ( 'NONE', ( #260 ) ) ;
#332 = DIRECTION ( 'NONE',  ( 4.275831445896958607E-31, 1.000000000000000000, 1.224646799147353207E-16 ) ) ;
#333 = ORIENTED_EDGE ( 'NONE', *, *, #343, .T. ) ;
#334 = DIRECTION ( 'NONE',  ( 0.0000000000000000000, -1.000000000000000000, 0.0000000000000000000 ) ) ;
#335 = PERSON_AND_ORGANIZATION ( #52, #148 ) ;
#336 = ORIENTED_EDGE ( 'NONE', *, *, #235, .F. ) ;
#337 = CIRCLE ( 'NONE', #228, 1.999999999999996669 ) ;
#338 = AXIS2_PLACEMENT_3D ( 'NONE', #132, #342, #286 ) ;
#339 = DIRECTION ( 'NONE',  ( -4.275831445896958607E-31, -1.000000000000000000, -1.224646799147353207E-16 ) ) ;
#340 = EDGE_LOOP ( 'NONE', ( #239 ) ) ;
#341 = EDGE_LOOP ( 'NONE', ( #314 ) ) ;
#342 = DIRECTION ( 'NONE',  ( 0.0000000000000000000, 0.0000000000000000000, 1.000000000000000000 ) ) ;
#343 = EDGE_CURVE ( 'NONE', #238, #238, #229, .T. ) ;
ENDSEC;
END-ISO-10303-21;
