ISO-10303-21;
HEADER;
FILE_DESCRIPTION (( 'STEP AP203' ),
    '1' );
FILE_NAME ('388806.step',
    '2021-12-13T10:25:55',
    ( '' ),
    ( '' ),
    'SwSTEP 2.0',
    'SolidWorks 2019',
    '' );
FILE_SCHEMA (( 'CONFIG_CONTROL_DESIGN' ));
ENDSEC;

DATA;
#1 = DATE_AND_TIME ( #28, #45 ) ;
#2 = ORIENTED_EDGE ( 'NONE', *, *, #73, .T. ) ;
#3 = CARTESIAN_POINT ( 'NONE',  ( 2.835344843947123082E-14, -9.945050970168741268E-16, 8.120750388677675957 ) ) ;
#4 = CALENDAR_DATE ( 2021, 13, 12 ) ;
#5 = EDGE_LOOP ( 'NONE', ( #91 ) ) ;
#6 = EDGE_CURVE ( 'NONE', #74, #74, #40, .T. ) ;
#7 = DIRECTION ( 'NONE',  ( 0.0000000000000000000, 0.0000000000000000000, 1.000000000000000000 ) ) ;
#8 = DIRECTION ( 'NONE',  ( 0.0000000000000000000, 1.000000000000000000, 0.0000000000000000000 ) ) ;
#9 = DATE_TIME_ROLE ( 'creation_date' ) ;
#10 = ORIENTED_EDGE ( 'NONE', *, *, #59, .T. ) ;
#11 = CONICAL_SURFACE ( 'NONE', #212, 1.599999999999997646, 0.7853981633974516097 ) ;
#12 = EDGE_LOOP ( 'NONE', ( #202 ) ) ;
#13 = EDGE_CURVE ( 'NONE', #156, #156, #77, .T. ) ;
#14 = FACE_BOUND ( 'NONE', #274, .T. ) ;
#15 = FACE_OUTER_BOUND ( 'NONE', #300, .T. ) ;
#16 = AXIS2_PLACEMENT_3D ( 'NONE', #335, #93, #179 ) ;
#17 = FACE_OUTER_BOUND ( 'NONE', #27, .T. ) ;
#18 = EDGE_CURVE ( 'NONE', #261, #261, #134, .T. ) ;
#19 = DIRECTION ( 'NONE',  ( 3.491481338843133355E-15, -1.224646799147353207E-16, 1.000000000000000000 ) ) ;
#20 = VERTEX_POINT ( 'NONE', #235 ) ;
#21 = DIRECTION ( 'NONE',  ( 3.491481338843133355E-15, -1.224646799147353207E-16, 1.000000000000000000 ) ) ;
#22 = EDGE_LOOP ( 'NONE', ( #217 ) ) ;
#23 = EDGE_CURVE ( 'NONE', #20, #20, #102, .T. ) ;
#24 = CARTESIAN_POINT ( 'NONE',  ( 1.256933281983528008E-14, 0.5999999999999995337, 3.600000000000000089 ) ) ;
#25 = PLANE ( 'NONE',  #82 ) ;
#26 = DIRECTION ( 'NONE',  ( -4.275831445896958607E-31, -1.000000000000000000, -1.224646799147353207E-16 ) ) ;
#27 = EDGE_LOOP ( 'NONE', ( #219 ) ) ;
#28 = CALENDAR_DATE ( 2021, 13, 12 ) ;
#29 = PERSON_AND_ORGANIZATION_ROLE ( 'classification_officer' ) ;
#30 = CARTESIAN_POINT ( 'NONE',  ( 1.256933281983528008E-14, -4.408728476930471151E-16, 3.600000000000000089 ) ) ;
#31 = COORDINATED_UNIVERSAL_TIME_OFFSET ( 1, 0, .AHEAD. ) ;
#32 = AXIS2_PLACEMENT_3D ( 'NONE', #295, #85, #166 ) ;
#33 = EDGE_CURVE ( 'NONE', #238, #238, #157, .T. ) ;
#34 = CC_DESIGN_APPROVAL ( #189, ( #301 ) ) ;
#35 = DIRECTION ( 'NONE',  ( 4.275831445896958607E-31, 1.000000000000000000, 1.224646799147353207E-16 ) ) ;
#36 = PERSON_AND_ORGANIZATION ( #269, #283 ) ;
#37 = ORIENTED_EDGE ( 'NONE', *, *, #59, .F. ) ;
#38 = ADVANCED_FACE ( 'NONE', ( #275, #114 ), #246, .F. ) ;
#39 = ORIENTED_EDGE ( 'NONE', *, *, #13, .T. ) ;
#40 = CIRCLE ( 'NONE', #180, 0.5999999999999998668 ) ;
#41 = AXIS2_PLACEMENT_3D ( 'NONE', #307, #69, #280 ) ;
#42 = CARTESIAN_POINT ( 'NONE',  ( 9.077851480992146724E-15, 4.499279347985565981E-33, 2.600000000000000089 ) ) ;
#43 = FACE_OUTER_BOUND ( 'NONE', #164, .T. ) ;
#44 = CARTESIAN_POINT ( 'NONE',  ( 9.077851480992146724E-15, -3.184081677783118191E-16, 2.600000000000000089 ) ) ;
#45 = LOCAL_TIME ( 11, 25, 55.00000000000000000, #65 ) ;
#46 = FACE_OUTER_BOUND ( 'NONE', #271, .T. ) ;
#47 = PRODUCT_DEFINITION_SHAPE ( 'NONE', 'NONE',  #301 ) ;
#48 = CYLINDRICAL_SURFACE ( 'NONE', #191, 1.999999999999997335 ) ;
#49 = DIRECTION ( 'NONE',  ( 0.0000000000000000000, 1.000000000000000000, 0.0000000000000000000 ) ) ;
#50 = CARTESIAN_POINT ( 'NONE',  ( -2.351780527767125423E-31, 8.248935669756077813E-33, -6.735767141594873587E-17 ) ) ;
#51 = DIRECTION ( 'NONE',  ( 4.275831445896958607E-31, 1.000000000000000000, 1.224646799147353207E-16 ) ) ;
#52 = PLANE ( 'NONE',  #315 ) ;
#53 = ADVANCED_FACE ( 'NONE', ( #223 ), #273, .F. ) ;
#54 = DIRECTION ( 'NONE',  ( 3.491481338843133355E-15, -1.224646799147353207E-16, 1.000000000000000000 ) ) ;
#55 = AXIS2_PLACEMENT_3D ( 'NONE', #42, #19, #181 ) ;
#56 = ORIENTED_EDGE ( 'NONE', *, *, #259, .F. ) ;
#57 = PERSON_AND_ORGANIZATION ( #269, #283 ) ;
#58 = DESIGN_CONTEXT ( 'detailed design', #106, 'design' ) ;
#59 = EDGE_CURVE ( 'NONE', #338, #338, #227, .T. ) ;
#60 = ORIENTED_EDGE ( 'NONE', *, *, #18, .F. ) ;
#61 = APPROVAL_STATUS ( 'not_yet_approved' ) ;
#62 = DIRECTION ( 'NONE',  ( 0.0000000000000000000, 1.000000000000000000, 0.0000000000000000000 ) ) ;
#63 = CALENDAR_DATE ( 2021, 13, 12 ) ;
#64 = DIRECTION ( 'NONE',  ( 4.333560346773609638E-31, 1.000000000000000000, 1.224646799147353207E-16 ) ) ;
#65 = COORDINATED_UNIVERSAL_TIME_OFFSET ( 1, 0, .AHEAD. ) ;
#66 = CARTESIAN_POINT ( 'NONE',  ( 1.256933281983527850E-14, -4.336808689942017736E-16, 3.599999999999999645 ) ) ;
#67 = FACE_OUTER_BOUND ( 'NONE', #22, .T. ) ;
#68 = APPROVAL_DATE_TIME ( #1, #292 ) ;
#69 = DIRECTION ( 'NONE',  ( 3.491481338843133355E-15, -1.224646799147353207E-16, 1.000000000000000000 ) ) ;
#70 = CC_DESIGN_DATE_AND_TIME_ASSIGNMENT ( #247, #9, ( #301 ) ) ;
#71 = DIRECTION ( 'NONE',  ( 4.275831445896959482E-31, 1.000000000000000000, 1.224646799147353454E-16 ) ) ;
#72 = DIRECTION ( 'NONE',  ( -4.275831445896958607E-31, -1.000000000000000000, -1.224646799147353207E-16 ) ) ;
#73 = EDGE_CURVE ( 'NONE', #131, #131, #198, .T. ) ;
#74 = VERTEX_POINT ( 'NONE', #290 ) ;
#75 = EDGE_LOOP ( 'NONE', ( #268 ) ) ;
#76 = VERTEX_POINT ( 'NONE', #184 ) ;
#77 = CIRCLE ( 'NONE', #257, 1.999999999999996669 ) ;
#78 = VERTEX_POINT ( 'NONE', #337 ) ;
#79 = APPROVAL_PERSON_ORGANIZATION ( #226, #189, #270 ) ;
#80 = APPROVAL_STATUS ( 'not_yet_approved' ) ;
#81 = EDGE_LOOP ( 'NONE', ( #319 ) ) ;
#82 = AXIS2_PLACEMENT_3D ( 'NONE', #316, #54, #26 ) ;
#83 = DIRECTION ( 'NONE',  ( -3.491481338843133355E-15, 1.224646799147353207E-16, -1.000000000000000000 ) ) ;
#84 = CALENDAR_DATE ( 2021, 13, 12 ) ;
#85 = DIRECTION ( 'NONE',  ( -3.491481338843133355E-15, 1.224646799147353207E-16, -1.000000000000000000 ) ) ;
#86 = MANIFOLD_SOLID_BREP ( 'Corps-Déplacer/Copier1[2]', #185 ) ;
#87 = APPROVAL_STATUS ( 'not_yet_approved' ) ;
#88 = DIRECTION ( 'NONE',  ( 0.0000000000000000000, 1.000000000000000000, 0.0000000000000000000 ) ) ;
#89 = AXIS2_PLACEMENT_3D ( 'NONE', #190, #317, #49 ) ;
#90 = PERSON_AND_ORGANIZATION ( #269, #283 ) ;
#91 = ORIENTED_EDGE ( 'NONE', *, *, #145, .F. ) ;
#92 = PLANE ( 'NONE',  #216 ) ;
#93 = DIRECTION ( 'NONE',  ( 3.491481338843133355E-15, -1.224646799147353207E-16, 1.000000000000000000 ) ) ;
#94 = AXIS2_PLACEMENT_3D ( 'NONE', #325, #196, #88 ) ;
#95 =( GEOMETRIC_REPRESENTATION_CONTEXT ( 3 ) GLOBAL_UNCERTAINTY_ASSIGNED_CONTEXT ( ( #110 ) ) GLOBAL_UNIT_ASSIGNED_CONTEXT ( ( #339, #263, #138 ) ) REPRESENTATION_CONTEXT ( 'NONE', 'WORKASPACE' ) );
#96 = DIRECTION ( 'NONE',  ( -4.275831445896958607E-31, -1.000000000000000000, -1.224646799147353207E-16 ) ) ;
#97 = FACE_OUTER_BOUND ( 'NONE', #12, .T. ) ;
#98 = FACE_OUTER_BOUND ( 'NONE', #116, .T. ) ;
#99 = APPROVAL_PERSON_ORGANIZATION ( #90, #292, #201 ) ;
#100 = FACE_BOUND ( 'NONE', #130, .T. ) ;
#101 = EDGE_LOOP ( 'NONE', ( #243 ) ) ;
#102 = CIRCLE ( 'NONE', #111, 0.7062339690556528327 ) ;
#103 = ADVANCED_FACE ( 'NONE', ( #200, #43 ), #341, .T. ) ;
#104 = CARTESIAN_POINT ( 'NONE',  ( 9.077851480992146724E-15, 0.5999999999999995337, 2.600000000000000089 ) ) ;
#105 = AXIS2_PLACEMENT_3D ( 'NONE', #279, #211, #124 ) ;
#106 = APPLICATION_CONTEXT ( 'configuration controlled 3d designs of mechanical parts and assemblies' ) ;
#107 = EDGE_LOOP ( 'NONE', ( #39 ) ) ;
#108 = COORDINATED_UNIVERSAL_TIME_OFFSET ( 1, 0, .AHEAD. ) ;
#109 = ORIENTED_EDGE ( 'NONE', *, *, #332, .F. ) ;
#110 = UNCERTAINTY_MEASURE_WITH_UNIT (LENGTH_MEASURE( 1.000000000000000082E-05 ), #339, 'distance_accuracy_value', 'NONE');
#111 = AXIS2_PLACEMENT_3D ( 'NONE', #251, #139, #62 ) ;
#112 = DIRECTION ( 'NONE',  ( 0.0000000000000000000, 1.000000000000000000, 0.0000000000000000000 ) ) ;
#113 = DATE_AND_TIME ( #63, #291 ) ;
#114 = FACE_OUTER_BOUND ( 'NONE', #264, .T. ) ;
#115 = DATE_AND_TIME ( #84, #320 ) ;
#116 = EDGE_LOOP ( 'NONE', ( #2 ) ) ;
#117 = DATE_AND_TIME ( #4, #135 ) ;
#118 = CC_DESIGN_DATE_AND_TIME_ASSIGNMENT ( #113, #242, ( #119 ) ) ;
#119 = SECURITY_CLASSIFICATION ( '', '', #329 ) ;
#120 = SHAPE_DEFINITION_REPRESENTATION ( #47, #178 ) ;
#121 = DIRECTION ( 'NONE',  ( 4.275831445896958607E-31, 1.000000000000000000, 1.224646799147353207E-16 ) ) ;
#122 = PLANE ( 'NONE',  #252 ) ;
#123 = CC_DESIGN_PERSON_AND_ORGANIZATION_ASSIGNMENT ( #249, #29, ( #119 ) ) ;
#124 = DIRECTION ( 'NONE',  ( 4.275831445896958607E-31, 1.000000000000000000, 1.224646799147353207E-16 ) ) ;
#125 = FACE_OUTER_BOUND ( 'NONE', #170, .T. ) ;
#126 = ADVANCED_FACE ( 'NONE', ( #278 ), #92, .F. ) ;
#127 = CARTESIAN_POINT ( 'NONE',  ( 0.0000000000000000000, 0.0000000000000000000, 0.0000000000000000000 ) ) ;
#128 = APPROVAL_PERSON_ORGANIZATION ( #197, #183, #302 ) ;
#129 = DIRECTION ( 'NONE',  ( -4.275831445896958607E-31, -1.000000000000000000, -1.224646799147353207E-16 ) ) ;
#130 = EDGE_LOOP ( 'NONE', ( #37 ) ) ;
#131 = VERTEX_POINT ( 'NONE', #340 ) ;
#132 = EDGE_CURVE ( 'NONE', #78, #78, #265, .T. ) ;
#133 = FACE_OUTER_BOUND ( 'NONE', #225, .T. ) ;
#134 = CIRCLE ( 'NONE', #327, 0.5999999999999999778 ) ;
#135 = LOCAL_TIME ( 11, 25, 55.00000000000000000, #108 ) ;
#136 = EDGE_LOOP ( 'NONE', ( #311 ) ) ;
#137 = EDGE_LOOP ( 'NONE', ( #250 ) ) ;
#138 =( NAMED_UNIT ( * ) SI_UNIT ( $, .STERADIAN. ) SOLID_ANGLE_UNIT ( ) );
#139 = DIRECTION ( 'NONE',  ( -3.491481338843133355E-15, 1.224646799147353207E-16, -1.000000000000000000 ) ) ;
#140 = CALENDAR_DATE ( 2021, 13, 12 ) ;
#141 = CIRCLE ( 'NONE', #153, 0.6437047985323830490 ) ;
#142 = CARTESIAN_POINT ( 'NONE',  ( 3.386736898677838724E-14, -1.187907395172932396E-15, 9.699999999999999289 ) ) ;
#143 = PERSON_AND_ORGANIZATION_ROLE ( 'creator' ) ;
#144 = ORIENTED_EDGE ( 'NONE', *, *, #33, .F. ) ;
#145 = EDGE_CURVE ( 'NONE', #182, #182, #141, .T. ) ;
#146 = PERSON_AND_ORGANIZATION ( #269, #283 ) ;
#147 = DIRECTION ( 'NONE',  ( -3.491481338843133355E-15, 1.224646799147353207E-16, -1.000000000000000000 ) ) ;
#148 = CC_DESIGN_APPROVAL ( #292, ( #119 ) ) ;
#149 = CARTESIAN_POINT ( 'NONE',  ( 1.326762908760390423E-13, -4.653657836759941941E-15, 38.00000000000000000 ) ) ;
#150 = CC_DESIGN_PERSON_AND_ORGANIZATION_ASSIGNMENT ( #57, #299, ( #309 ) ) ;
#151 = FACE_BOUND ( 'NONE', #137, .T. ) ;
#152 = DIRECTION ( 'NONE',  ( -3.491481338843133355E-15, 1.224646799147353207E-16, -1.000000000000000000 ) ) ;
#153 = AXIS2_PLACEMENT_3D ( 'NONE', #281, #334, #254 ) ;
#154 = FACE_OUTER_BOUND ( 'NONE', #186, .T. ) ;
#155 = FACE_OUTER_BOUND ( 'NONE', #172, .T. ) ;
#156 = VERTEX_POINT ( 'NONE', #163 ) ;
#157 = CIRCLE ( 'NONE', #206, 1.959999999999999964 ) ;
#158 = DIRECTION ( 'NONE',  ( -3.491481338843133355E-15, 1.224646799147353207E-16, -1.000000000000000000 ) ) ;
#159 = FACE_OUTER_BOUND ( 'NONE', #107, .T. ) ;
#160 = EDGE_LOOP ( 'NONE', ( #10 ) ) ;
#161 = ADVANCED_FACE ( 'NONE', ( #125, #177 ), #304, .T. ) ;
#162 = AXIS2_PLACEMENT_3D ( 'NONE', #127, #331, #121 ) ;
#163 = CARTESIAN_POINT ( 'NONE',  ( 3.386736898677838724E-14, 1.999999999999995337, 9.699999999999999289 ) ) ;
#164 = EDGE_LOOP ( 'NONE', ( #289 ) ) ;
#165 = APPLICATION_PROTOCOL_DEFINITION ( 'international standard', 'config_control_design', 1994, #106 ) ;
#166 = DIRECTION ( 'NONE',  ( 0.0000000000000000000, 1.000000000000000000, 0.0000000000000000000 ) ) ;
#167 = PERSON_AND_ORGANIZATION_ROLE ( 'creator' ) ;
#168 = AXIS2_PLACEMENT_3D ( 'NONE', #193, #321, #35 ) ;
#169 = CIRCLE ( 'NONE', #199, 0.5999999999999995337 ) ;
#170 = EDGE_LOOP ( 'NONE', ( #144 ) ) ;
#171 = CARTESIAN_POINT ( 'NONE',  ( 0.0000000000000000000, 0.0000000000000000000, 0.0000000000000000000 ) ) ;
#172 = EDGE_LOOP ( 'NONE', ( #56 ) ) ;
#173 = ORIENTED_EDGE ( 'NONE', *, *, #23, .F. ) ;
#174 = ADVANCED_FACE ( 'NONE', ( #155 ), #205, .T. ) ;
#175 = FACE_OUTER_BOUND ( 'NONE', #75, .T. ) ;
#176 = CC_DESIGN_SECURITY_CLASSIFICATION ( #119, ( #342 ) ) ;
#177 = FACE_OUTER_BOUND ( 'NONE', #160, .T. ) ;
#178 = ADVANCED_BREP_SHAPE_REPRESENTATION ( '388806', ( #208, #86, #237 ), #95 ) ;
#179 = DIRECTION ( 'NONE',  ( 0.0000000000000000000, -1.000000000000000000, 0.0000000000000000000 ) ) ;
#180 = AXIS2_PLACEMENT_3D ( 'NONE', #192, #293, #297 ) ;
#181 = DIRECTION ( 'NONE',  ( -4.275831445896958607E-31, -1.000000000000000000, -1.224646799147353207E-16 ) ) ;
#182 = VERTEX_POINT ( 'NONE', #287 ) ;
#183 = APPROVAL ( #61, 'UNSPECIFIED' ) ;
#184 = CARTESIAN_POINT ( 'NONE',  ( 2.137183397710474803E-32, 0.5999999999999995337, 6.121136532892404794E-18 ) ) ;
#185 = CLOSED_SHELL ( 'NONE', ( #305, #284, #174 ) ) ;
#186 = EDGE_LOOP ( 'NONE', ( #288 ) ) ;
#187 = CARTESIAN_POINT ( 'NONE',  ( 3.386736898677838724E-14, 1.959999999999998632, 9.699999999999999289 ) ) ;
#188 = EDGE_LOOP ( 'NONE', ( #314 ) ) ;
#189 = APPROVAL ( #87, 'UNSPECIFIED' ) ;
#190 = CARTESIAN_POINT ( 'NONE',  ( 1.312796983405018142E-13, -4.604671964794047724E-15, 37.60000000000000142 ) ) ;
#191 = AXIS2_PLACEMENT_3D ( 'NONE', #209, #308, #71 ) ;
#192 = CARTESIAN_POINT ( 'NONE',  ( 9.077851480992146724E-15, -3.184081677783118191E-16, 2.600000000000000089 ) ) ;
#193 = CARTESIAN_POINT ( 'NONE',  ( 1.326762908760390423E-13, 1.199807826129477602E-32, 38.00000000000000000 ) ) ;
#194 = APPROVAL_DATE_TIME ( #117, #183 ) ;
#195 = ADVANCED_FACE ( 'NONE', ( #67, #151 ), #11, .T. ) ;
#196 = DIRECTION ( 'NONE',  ( -3.491481338843133355E-15, 1.224646799147353207E-16, -1.000000000000000000 ) ) ;
#197 = PERSON_AND_ORGANIZATION ( #269, #283 ) ;
#198 = CIRCLE ( 'NONE', #94, 1.150000000000000355 ) ;
#199 = AXIS2_PLACEMENT_3D ( 'NONE', #50, #158, #286 ) ;
#200 = FACE_BOUND ( 'NONE', #244, .T. ) ;
#201 = APPROVAL_ROLE ( '' ) ;
#202 = ORIENTED_EDGE ( 'NONE', *, *, #13, .F. ) ;
#203 = CC_DESIGN_PERSON_AND_ORGANIZATION_ASSIGNMENT ( #36, #322, ( #342 ) ) ;
#204 = DIRECTION ( 'NONE',  ( -3.491481338843133355E-15, 1.224646799147353207E-16, -1.000000000000000000 ) ) ;
#205 = PLANE ( 'NONE',  #55 ) ;
#206 = AXIS2_PLACEMENT_3D ( 'NONE', #3, #221, #8 ) ;
#207 = DIRECTION ( 'NONE',  ( 3.491481338843133355E-15, -1.224646799147353207E-16, 1.000000000000000000 ) ) ;
#208 = MANIFOLD_SOLID_BREP ( 'Corps-Déplacer/Copier1[1]', #282 ) ;
#209 = CARTESIAN_POINT ( 'NONE',  ( 0.0000000000000000000, 0.0000000000000000000, 0.0000000000000000000 ) ) ;
#210 = ADVANCED_FACE ( 'NONE', ( #15, #175 ), #306, .T. ) ;
#211 = DIRECTION ( 'NONE',  ( -3.491481338843133355E-15, 1.224646799147353207E-16, -1.000000000000000000 ) ) ;
#212 = AXIS2_PLACEMENT_3D ( 'NONE', #255, #204, #231 ) ;
#213 = CIRCLE ( 'NONE', #328, 0.5999999999999998668 ) ;
#214 = ADVANCED_FACE ( 'NONE', ( #14, #98 ), #122, .F. ) ;
#215 = VERTEX_POINT ( 'NONE', #312 ) ;
#216 = AXIS2_PLACEMENT_3D ( 'NONE', #229, #207, #72 ) ;
#217 = ORIENTED_EDGE ( 'NONE', *, *, #324, .F. ) ;
#218 = PERSON_AND_ORGANIZATION ( #269, #283 ) ;
#219 = ORIENTED_EDGE ( 'NONE', *, *, #324, .T. ) ;
#220 = DIRECTION ( 'NONE',  ( 1.000000000000000000, 0.0000000000000000000, 0.0000000000000000000 ) ) ;
#221 = DIRECTION ( 'NONE',  ( -3.491481338843133355E-15, 1.224646799147353207E-16, -1.000000000000000000 ) ) ;
#222 = MECHANICAL_CONTEXT ( 'NONE', #326, 'mechanical' ) ;
#223 = FACE_OUTER_BOUND ( 'NONE', #81, .T. ) ;
#224 = COORDINATED_UNIVERSAL_TIME_OFFSET ( 1, 0, .AHEAD. ) ;
#225 = EDGE_LOOP ( 'NONE', ( #248 ) ) ;
#226 = PERSON_AND_ORGANIZATION ( #269, #283 ) ;
#227 = CIRCLE ( 'NONE', #32, 1.959999999999999964 ) ;
#228 = ORIENTED_EDGE ( 'NONE', *, *, #73, .F. ) ;
#229 = CARTESIAN_POINT ( 'NONE',  ( 9.077851480992146724E-15, 4.499279347985565981E-33, 2.600000000000000089 ) ) ;
#230 = DIRECTION ( 'NONE',  ( 3.491481338843133355E-15, -1.224646799147353207E-16, 1.000000000000000000 ) ) ;
#231 = DIRECTION ( 'NONE',  ( 0.0000000000000000000, 1.000000000000000000, 0.0000000000000000000 ) ) ;
#232 = AXIS2_PLACEMENT_3D ( 'NONE', #234, #336, #51 ) ;
#233 = FACE_OUTER_BOUND ( 'NONE', #101, .T. ) ;
#234 = CARTESIAN_POINT ( 'NONE',  ( 0.0000000000000000000, 0.0000000000000000000, 0.0000000000000000000 ) ) ;
#235 = CARTESIAN_POINT ( 'NONE',  ( 1.504828457041390350E-14, 0.7062339690556522775, 4.309999999999999609 ) ) ;
#236 = PRODUCT_RELATED_PRODUCT_CATEGORY ( 'detail', '', ( #309 ) ) ;
#237 = AXIS2_PLACEMENT_3D ( 'NONE', #171, #7, #220 ) ;
#238 = VERTEX_POINT ( 'NONE', #313 ) ;
#239 = CARTESIAN_POINT ( 'NONE',  ( -1.175890263883562711E-31, 4.124467834878038907E-33, -3.367883570797436793E-17 ) ) ;
#240 = CONICAL_SURFACE ( 'NONE', #41, 0.7062339690556528327, 0.2094395102393052099 ) ;
#241 = CC_DESIGN_PERSON_AND_ORGANIZATION_ASSIGNMENT ( #146, #167, ( #301 ) ) ;
#242 = DATE_TIME_ROLE ( 'classification_date' ) ;
#243 = ORIENTED_EDGE ( 'NONE', *, *, #23, .T. ) ;
#244 = EDGE_LOOP ( 'NONE', ( #228 ) ) ;
#245 = ADVANCED_FACE ( 'NONE', ( #285, #233 ), #240, .T. ) ;
#246 = TOROIDAL_SURFACE ( 'NONE', #272, 2.600000000000000089, 2.000000000000000000 ) ;
#247 = DATE_AND_TIME ( #140, #298 ) ;
#248 = ORIENTED_EDGE ( 'NONE', *, *, #332, .T. ) ;
#249 = PERSON_AND_ORGANIZATION ( #269, #283 ) ;
#250 = ORIENTED_EDGE ( 'NONE', *, *, #132, .T. ) ;
#251 = CARTESIAN_POINT ( 'NONE',  ( 1.504828457041390350E-14, -5.278227704325092222E-16, 4.309999999999999609 ) ) ;
#252 = AXIS2_PLACEMENT_3D ( 'NONE', #310, #230, #96 ) ;
#253 = CC_DESIGN_APPROVAL ( #183, ( #342 ) ) ;
#254 = DIRECTION ( 'NONE',  ( 0.0000000000000000000, 1.000000000000000000, 0.0000000000000000000 ) ) ;
#255 = CARTESIAN_POINT ( 'NONE',  ( 1.326762908760390423E-13, -4.653657836759941941E-15, 38.00000000000000000 ) ) ;
#256 = DIRECTION ( 'NONE',  ( 0.0000000000000000000, 1.000000000000000000, 0.0000000000000000000 ) ) ;
#257 = AXIS2_PLACEMENT_3D ( 'NONE', #142, #330, #112 ) ;
#258 = CYLINDRICAL_SURFACE ( 'NONE', #232, 0.5999999999999996447 ) ;
#259 = EDGE_CURVE ( 'NONE', #262, #262, #213, .T. ) ;
#260 = DIRECTION ( 'NONE',  ( -3.491481338843133355E-15, 1.224646799147353207E-16, -1.000000000000000000 ) ) ;
#261 = VERTEX_POINT ( 'NONE', #24 ) ;
#262 = VERTEX_POINT ( 'NONE', #104 ) ;
#263 =( NAMED_UNIT ( * ) PLANE_ANGLE_UNIT ( ) SI_UNIT ( $, .RADIAN. ) );
#264 = EDGE_LOOP ( 'NONE', ( #60 ) ) ;
#265 = CIRCLE ( 'NONE', #276, 1.599999999999997646 ) ;
#266 = COORDINATED_UNIVERSAL_TIME_OFFSET ( 1, 0, .AHEAD. ) ;
#267 = ADVANCED_FACE ( 'NONE', ( #97, #17 ), #48, .T. ) ;
#268 = ORIENTED_EDGE ( 'NONE', *, *, #18, .T. ) ;
#269 = PERSON ( 'UNSPECIFIED', 'UNSPECIFIED', 'UNSPECIFIED', ('UNSPECIFIED'), ('UNSPECIFIED'), ('UNSPECIFIED') ) ;
#270 = APPROVAL_ROLE ( '' ) ;
#271 = EDGE_LOOP ( 'NONE', ( #109 ) ) ;
#272 = AXIS2_PLACEMENT_3D ( 'NONE', #66, #83, #64 ) ;
#273 = PLANE ( 'NONE',  #168 ) ;
#274 = EDGE_LOOP ( 'NONE', ( #173 ) ) ;
#275 = FACE_OUTER_BOUND ( 'NONE', #136, .T. ) ;
#276 = AXIS2_PLACEMENT_3D ( 'NONE', #149, #260, #333 ) ;
#277 = CIRCLE ( 'NONE', #89, 1.999999999999997780 ) ;
#278 = FACE_OUTER_BOUND ( 'NONE', #188, .T. ) ;
#279 = CARTESIAN_POINT ( 'NONE',  ( 0.0000000000000000000, 0.0000000000000000000, 0.0000000000000000000 ) ) ;
#280 = DIRECTION ( 'NONE',  ( 0.0000000000000000000, -1.000000000000000000, 0.0000000000000000000 ) ) ;
#281 = CARTESIAN_POINT ( 'NONE',  ( 1.402117239707024492E-14, -4.917965250261004085E-16, 4.015823381635491351 ) ) ;
#282 = CLOSED_SHELL ( 'NONE', ( #126, #210, #38, #245, #214, #103, #161, #318, #267, #195, #53 ) ) ;
#283 = ORGANIZATION ( 'UNSPECIFIED', 'UNSPECIFIED', '' ) ;
#284 = ADVANCED_FACE ( 'NONE', ( #46, #154 ), #258, .T. ) ;
#285 = FACE_BOUND ( 'NONE', #5, .T. ) ;
#286 = DIRECTION ( 'NONE',  ( 4.275831445896957731E-31, 1.000000000000000000, 1.224646799147353207E-16 ) ) ;
#287 = CARTESIAN_POINT ( 'NONE',  ( 1.402117239707024492E-14, 0.6437047985323824939, 4.015823381635491351 ) ) ;
#288 = ORIENTED_EDGE ( 'NONE', *, *, #259, .T. ) ;
#289 = ORIENTED_EDGE ( 'NONE', *, *, #33, .T. ) ;
#290 = CARTESIAN_POINT ( 'NONE',  ( 9.077851480992146724E-15, 0.5999999999999995337, 2.600000000000000089 ) ) ;
#291 = LOCAL_TIME ( 11, 25, 55.00000000000000000, #224 ) ;
#292 = APPROVAL ( #80, 'UNSPECIFIED' ) ;
#293 = DIRECTION ( 'NONE',  ( -3.491481338843133355E-15, 1.224646799147353207E-16, -1.000000000000000000 ) ) ;
#294 = APPLICATION_PROTOCOL_DEFINITION ( 'international standard', 'config_control_design', 1994, #326 ) ;
#295 = CARTESIAN_POINT ( 'NONE',  ( 3.386736898677838724E-14, -1.187907395172932396E-15, 9.699999999999999289 ) ) ;
#296 = APPROVAL_DATE_TIME ( #115, #189 ) ;
#297 = DIRECTION ( 'NONE',  ( 0.0000000000000000000, 1.000000000000000000, 0.0000000000000000000 ) ) ;
#298 = LOCAL_TIME ( 11, 25, 55.00000000000000000, #31 ) ;
#299 = PERSON_AND_ORGANIZATION_ROLE ( 'design_owner' ) ;
#300 = EDGE_LOOP ( 'NONE', ( #323 ) ) ;
#301 = PRODUCT_DEFINITION ( 'UNKNOWN', '', #342, #58 ) ;
#302 = APPROVAL_ROLE ( '' ) ;
#303 = DIRECTION ( 'NONE',  ( 0.0000000000000000000, 1.000000000000000000, 0.0000000000000000000 ) ) ;
#304 = CYLINDRICAL_SURFACE ( 'NONE', #162, 1.959999999999999964 ) ;
#305 = ADVANCED_FACE ( 'NONE', ( #133 ), #52, .F. ) ;
#306 = CYLINDRICAL_SURFACE ( 'NONE', #105, 0.5999999999999998668 ) ;
#307 = CARTESIAN_POINT ( 'NONE',  ( 1.504828457041390350E-14, -5.278227704325092222E-16, 4.309999999999999609 ) ) ;
#308 = DIRECTION ( 'NONE',  ( -3.491481338843133355E-15, 1.224646799147353207E-16, -1.000000000000000000 ) ) ;
#309 = PRODUCT ( '388806', '388806', '', ( #222 ) ) ;
#310 = CARTESIAN_POINT ( 'NONE',  ( 1.504828457041390350E-14, 1.391952527000231096E-32, 4.309999999999999609 ) ) ;
#311 = ORIENTED_EDGE ( 'NONE', *, *, #145, .T. ) ;
#312 = CARTESIAN_POINT ( 'NONE',  ( 1.312796983405018142E-13, 1.999999999999993117, 37.60000000000000142 ) ) ;
#313 = CARTESIAN_POINT ( 'NONE',  ( 2.835344843947123082E-14, 1.959999999999999076, 8.120750388677675957 ) ) ;
#314 = ORIENTED_EDGE ( 'NONE', *, *, #6, .T. ) ;
#315 = AXIS2_PLACEMENT_3D ( 'NONE', #239, #21, #129 ) ;
#316 = CARTESIAN_POINT ( 'NONE',  ( 3.386736898677838724E-14, 2.969524369670473466E-32, 9.699999999999999289 ) ) ;
#317 = DIRECTION ( 'NONE',  ( -3.491481338843133355E-15, 1.224646799147353207E-16, -1.000000000000000000 ) ) ;
#318 = ADVANCED_FACE ( 'NONE', ( #100, #159 ), #25, .F. ) ;
#319 = ORIENTED_EDGE ( 'NONE', *, *, #132, .F. ) ;
#320 = LOCAL_TIME ( 11, 25, 55.00000000000000000, #266 ) ;
#321 = DIRECTION ( 'NONE',  ( -3.491481338843133355E-15, 1.224646799147353207E-16, -1.000000000000000000 ) ) ;
#322 = PERSON_AND_ORGANIZATION_ROLE ( 'design_supplier' ) ;
#323 = ORIENTED_EDGE ( 'NONE', *, *, #6, .F. ) ;
#324 = EDGE_CURVE ( 'NONE', #215, #215, #277, .T. ) ;
#325 = CARTESIAN_POINT ( 'NONE',  ( 1.504828457041390665E-14, -5.278227704325093208E-16, 4.310000000000000497 ) ) ;
#326 = APPLICATION_CONTEXT ( 'configuration controlled 3d designs of mechanical parts and assemblies' ) ;
#327 = AXIS2_PLACEMENT_3D ( 'NONE', #30, #147, #303 ) ;
#328 = AXIS2_PLACEMENT_3D ( 'NONE', #44, #152, #256 ) ;
#329 = SECURITY_CLASSIFICATION_LEVEL ( 'unclassified' ) ;
#330 = DIRECTION ( 'NONE',  ( -3.491481338843133355E-15, 1.224646799147353207E-16, -1.000000000000000000 ) ) ;
#331 = DIRECTION ( 'NONE',  ( -3.491481338843133355E-15, 1.224646799147353207E-16, -1.000000000000000000 ) ) ;
#332 = EDGE_CURVE ( 'NONE', #76, #76, #169, .T. ) ;
#333 = DIRECTION ( 'NONE',  ( 0.0000000000000000000, 1.000000000000000000, 0.0000000000000000000 ) ) ;
#334 = DIRECTION ( 'NONE',  ( -3.491481338843133355E-15, 1.224646799147353207E-16, -1.000000000000000000 ) ) ;
#335 = CARTESIAN_POINT ( 'NONE',  ( 2.835344843947123082E-14, -9.945050970168741268E-16, 8.120750388677675957 ) ) ;
#336 = DIRECTION ( 'NONE',  ( -3.491481338843133355E-15, 1.224646799147353207E-16, -1.000000000000000000 ) ) ;
#337 = CARTESIAN_POINT ( 'NONE',  ( 1.326762908760390423E-13, 1.599999999999993205, 38.00000000000000000 ) ) ;
#338 = VERTEX_POINT ( 'NONE', #187 ) ;
#339 =( LENGTH_UNIT ( ) NAMED_UNIT ( * ) SI_UNIT ( .MILLI., .METRE. ) );
#340 = CARTESIAN_POINT ( 'NONE',  ( 1.504828457041390665E-14, 1.149999999999999911, 4.310000000000000497 ) ) ;
#341 = CONICAL_SURFACE ( 'NONE', #16, 1.959999999999999964, 0.2094395102393125929 ) ;
#342 = PRODUCT_DEFINITION_FORMATION_WITH_SPECIFIED_SOURCE ( 'ANY', '', #309, .NOT_KNOWN. ) ;
#343 = CC_DESIGN_PERSON_AND_ORGANIZATION_ASSIGNMENT ( #218, #143, ( #342 ) ) ;
ENDSEC;
END-ISO-10303-21;
